Gitaristu.ru
Аккорды Табулатура Начинающим Мастер-класс Софт Видео Форум Блог
Новости Анонсы Гитары Гитаристы Статьи Аватарки Минусовки
Поиск





Популярные подборы




Настройка гитары






Главная > Аккорды > T > Tommy Keene

Аккорды
Tommy Keene
-
Astronomy (аккорды)



Подбор прислал: gitaristu.ru



Date: Thu, 29 Jun 2006 15:21:30 -0400 (EDT)
From: Kevin Halleran 
Subject: k/keene_tommy/astronomy.crd

ASTRONOMY

capo on 2nd fret

intro and verse:в~@Ё
----0---0----2--0--2--3----2--0--2----в~@Ё
----0---0----3--3--3--3----3--3--3----в~@Ё
----0---0----2--2--2--0----2--2--2----в~@Ё
----2---2----0--0--0--0----0--0--0----в~@Ё
----2---2-------------2----------------в~@Ё
----0---0-------------3----------------
      Well outside in the winter light  

----0---0---2--0--2--3----0--0------в~@Ё
----0---0---3--3--3--3----1--1------в~@Ё
----0---0---2--2--2--0----0--0------в~@Ё
----2---2---0--0--0--0----2--0------в~@Ё
----2---2------------2----3--2------в~@Ё
----0---0------------3--------------
       we  lie  in the fields tonightв~@Ё
в~@Ё
---0-----0-----0-----0---------------в~@Ё
---1-----1-----1---------3--1--0-----в~@Ё
---2-----0-----0---------------------в~@Ё
---2-----0-----2---------------------в~@Ё
---0-----2-----3---------------------в~@Ё
-------------------------------------
  you'll never reveal these chains

-0---0---0----0-----------2------3--2--0--2--в~@Ё
-1---1---1----3--1--0-----3------3--3--3--3--в~@Ё
-2---0---0----------------2------2--2--2--2--в~@Ё
-2---0---2----------------0------0--0--0--0--в~@Ё
-0---2---3-----------------------------------
---------------------------------------------
I'm locked in the springtime in the rain

-3-------2--0--2----- 1st time back to verse/в~@Ё
-3-------3--3--3----- 2nd time to bridgeв~@Ё
-0-------2--2--2-----в~@Ё
-0-------0--0--0-----в~@Ё
-2-------------------в~@Ё
-3-------------------
в~@Ё
Bridge:в~@Ё
Em                 G                      C                  G           D
And there is more but I can't say except I must be dreaming

Em                 G                      C               G         D
She tells me now that I can't stay that I must go far... 

   -3-------2--0--2----- back to verseв~@Ё
   -3-------3--3--3-----в~@Ё
   -0-------2--2--2-----в~@Ё
   -0-------0--0--0-----в~@Ё
   -2-------------------в~@Ё
   -3-------------------
...away


Расскажи друзьям!




Войдите, используя Ваш аккаунт:



Забыли пароль?
Зарегистрироваться

Привет, гитарист!

Пройди супер-курс по гитаре и порази всех своей игрой!

Забрать курс!
ВАМ ПОДАРКИ ОТ ПРОЕКТА
"ГИТАРНАЯ РЕВОЛЮЦИЯ"