Gitaristu.ru
Аккорды Табулатура Начинающим Мастер-класс Софт Видео Форум Блог
Новости Анонсы Гитары Гитаристы Статьи Аватарки Минусовки
Поиск





Популярные подборы




Настройка гитары






Главная > Аккорды > T > Tommy Keene

Аккорды
Tommy Keene
-
Hey little child (аккорды)



Подбор прислал: gitaristu.ru



Date: Thu, 29 Jun 2006 15:23:26 -0400 (EDT)
From: Kevin Halleran 
Subject: k/keene_tommy/hey_little_child.crd

HEY  LITTLE CHILD
(by Alex Chilton, but I like Tommy's version better)

Intro and chorus:

----------------------------------
----9-9--7-7-7---1010--9-9-9-----
----9-9--9-9-9---9-9---9-9-9-----
----9-9--9-9-9---7-7---7-7-7-----
----7-7--7-7-7-------------------
----------------------------------

Intro Part 2 (also after 2nd chorus and outro)
   E
--0-----0---0---0---0-----
--0-----5---4---2---0-----
--1------------------------
--2------------------------
--2------------------------
--0------------------------

Verse:
E                    A                      E                                         A
Oh, you're a poor little thing  Somebody must have been nice to you...


Расскажи друзьям!




Войдите, используя Ваш аккаунт:



Забыли пароль?
Зарегистрироваться

Привет, гитарист!

Пройди супер-курс по гитаре и порази всех своей игрой!

Забрать курс!
ВАМ ПОДАРКИ ОТ ПРОЕКТА
"ГИТАРНАЯ РЕВОЛЮЦИЯ"