Gitaristu.ru
Аккорды Табулатура Начинающим Мастер-класс Софт Видео Форум Блог
Новости Анонсы Гитары Гитаристы Статьи Аватарки Минусовки
Поиск





Популярные подборы




Настройка гитары






Главная > Аккорды > T > Tommy Lee

Аккорды
Tommy Lee
-
Hold me down (аккорды)



Подбор прислал: gitaristu.ru



From: Rooster 
Subject: l/lee_tommy/hold_me_down.crd
Date: Wed, 17 Jul 2002 15:07:53 -0400

Tommy Lee - Hold Me Down
-------------------------
Tab Interpretation by Jon Van Meter

Here are the basics:
This tab is for drop D tuning (and I think they have everything tuned =
down a half step as well)=20

Intro and Verse (let chord ring while playing three single notes after)

E----0-------------0--------------0--0-----0----3----------------
B----3--3--1-------3--3--1--------3--3--3-------3----------------
G----2--2--2--2----0--0--0--0-----2-------------0----------------
D----0-------------2--------------0-------------0----------------
A-----------------------------------------------3----------------
D----------------------------------------------------------------

Chorus (and bridge)

E----0----------------------------0-------------3--------3--------
B----3-------------5--------------3-------------3--------3--------
G----2-------------5--------------2-------------5--------0--------
D----0-------------5--------------0-------------5--------0--------
A----0-------------3--------------0-------------3--------1--------
D----0-------------3--------------0-------------3-------(0)-------


VERSE

CHORUS

VERSE

CHORUS

BRIDGE

[chorus]


Расскажи друзьям!




Войдите, используя Ваш аккаунт:



Забыли пароль?
Зарегистрироваться

Привет, гитарист!

Пройди супер-курс по гитаре и порази всех своей игрой!

Забрать курс!
ВАМ ПОДАРКИ ОТ ПРОЕКТА
"ГИТАРНАЯ РЕВОЛЮЦИЯ"