Gitaristu.ru
Аккорды Табулатура Начинающим Мастер-класс Софт Видео Форум Блог
Новости Анонсы Гитары Гитаристы Статьи Аватарки Минусовки
Поиск





Популярные подборы




Настройка гитары






Главная > Аккорды > T > Triggerfinger

Аккорды
Triggerfinger
-
Lil Teaser bass (табулатура)



Подбор прислал: gitaristu.ru
Band: Triggerfinger
SOng: Lil' Teaser
ALbum: Tiggerfinger 2004
Music: Ruben Block (Guitar + Vocals), 
Mario Goosens (Drums), Msr. Paul (Bass)
If mistakes: mail me(Korneel.Neysens@gmail.com)

pre-intro(before drums)

G|--------------------------|
D|--------------------------|
A|-----7-7-7-----5-5-----7-7|
E|--------------------------|

intro: drums: 1-2-ts-ts...(drum starts)
G|-----------------|-------------|
D|-----------------|-------------|
A|----7--10--10--7-|-7--5--4--3--|
E|-----------------|-------------|
 					Slightly faster
G|---------------------------------|-----------------------------------------|
D|---------------------------------|-----------------------------------------|
A|--7-777---5-555---4-444---3-333--|--7-77777---5-55555---4-44444---3-33333--|
E|---------------------------------|-----------------------------------------|

Verse(0:31)
G|---------------------------------|---------------------------------|
D|---------------------------------|---------------------------------|
A|--7777---5555---4444---3333------|--7777---5555---4444---3333------|
E|---------------------------------|---------------------------------|

G|---------------------------------|---------------------------------|
D|---------------------------------|---------------------------------|
A|--7777---5555---4444---3333------|--7777---5555---4444---3333------|
E|---------------------------------|---------------------------------|

with guitars(0:50)

G|-----------------------------------------|-----------------------------------------|
D|-----------------------------------------|-----------------------------------------|
A|--7-77777---5-55555---4-44444---3-33333--|--7-77777---5-55555---4-44444---3-33333--|
E|-----------------------------------------|-----------------------------------------|

verse(1:00)
G|---------------------------------|-----------------------------------------|
D|---------------------------------|-----------------------------------------|
A|--7777---5555---4444---3333------|--7777---9999---10101010---12121212------| it's [10] not 1  0 
E|---------------------------------|-----------------------------------------| Same for [12]

G|---------------------------------|---------------------------------|
D|---------------------------------|---------------------------------|
A|--7777---5555---4444---3333------|--7777---5555---4444---3333------|
E|---------------------------------|---------------------------------|

CHorus(1:20) ...Love you more...

G|---------------------------------|---------------------------------|
D|---------------------------------|---------------------------------|
A|--7777---5555---4444---3333------|--7777---5555---4444---3333------|
E|---------------------------------|---------------------------------|

Verse(1:30)

G|---------------------------------|
D|---------------------------------|
A|--7777---5555---4444---3333------|
E|---------------------------------|

only drums and singing
1:40
G|---------------------------------|---------------------------------|
D|---------------------------------|---------------------------------|
A|--7777---5555---4444---3333------|--7777---5555---4444---3333------|
E|---------------------------------|---------------------------------|

CHorus(1:50)

G|---------------------------------|---------------------------------|
D|---------------------------------|---------------------------------|
A|--7777---5555---4444---3333------|--7777---5555---4444---3333------|  2X
E|---------------------------------|---------------------------------| 

G|-------------------------------------------|
D|-------------------------------------------|
A|--7777---5555---4444---5555-5555-5555--7-7-| 
E|-------------------------------------------|

"solo guitar"

2:18
G|-----------|
D|-----------| 4X   1*
A|-10-7-8-9--|
E|-----------|
				REPEAT ALL 4X: You played 4 times 1*, 4 times 2*: repeat that 4 times
G|------------|					: 4x ( 4X 1* + 4X 2*)
D|------------| 4X  2* 
A|-7-7777--10-|
E|------------|


2:58: singing starts
3:00

G|-------------|
D|-------------|
A|-4444---3333-|
E|-------------|

G|-----------------------------------------|
D|-----------------------------------------|
A|--7777---9999---10101010---12121212------|
E|-----------------------------------------|

G|---------------------------------|
D|---------------------------------|
A|--7777---5555---4444---3333------| 2X
E|---------------------------------|

Chorus(3:17)

G|---------------------------------|---------------------------------|
D|---------------------------------|---------------------------------|
A|--7777---5555---4444---3333------|--7777---5555---4444---3333------|  
E|---------------------------------|---------------------------------|

G|---------------------------------|-------------------------------------------|
D|---------------------------------|-------------------------------------------|
A|--7777---5555---4444---3333------|--7777---5555---4444---5555-5555-5555--7-7-| 
E|---------------------------------|-------------------------------------------|

guitar only
when guitars stops

G|-----------|---------|
D|-----------|---------|
A|-----------|---------|
E|-3--0------|0--0--12-|
Расскажи друзьям!




Войдите, используя Ваш аккаунт:



Забыли пароль?
Зарегистрироваться

Привет, гитарист!

Пройди супер-курс по гитаре и порази всех своей игрой!

Забрать курс!
ВАМ ПОДАРКИ ОТ ПРОЕКТА
"ГИТАРНАЯ РЕВОЛЮЦИЯ"