Gitaristu.ru
Аккорды Табулатура Начинающим Мастер-класс Софт Видео Форум Блог
Новости Анонсы Гитары Гитаристы Статьи Аватарки Минусовки
Поиск





Популярные подборы




Настройка гитары






Главная > Аккорды > T > Trio Los Panchos

Аккорды
Trio Los Panchos
-
La Barca (табулатура)



Подбор прислал: gitaristu.ru
Los Panchos
la Barca        
AUTHOR: Roberto Cantoral

Tabbe by: CO (calopi@hotmail.com)

-----INTRO----
(8th above)

E ||-----------------4---4------4-7-4h7p4---------------|
B ||-----------4-5-7---7------7-----------7-5p4-7-5-7---|
G ||o------4-6------------------------------------------|
D ||o--6-7----------------------------------------------|
A ||----------------------------------------------------|
E ||----------------------------------------------------|
                                          I
                               |_____________________|
E ----2-4-2h4p2---------------|-------------------------||
B --5------------5-4p2-5-4-5--|--4-5-7-5p4--------------||
G ----------------------------|------------6---6-4-6---o||
D ----------------------------|--------------7---------o||
A ----------------------------|-------------------------||
E ----------------------------|-------------------------||

(2nd time ad. lib.)
         II
   |_________________|
E |-------------------||
B |-4-5-7-5-4-5--4-2--||
G |--------------4-4--||
D |--------------2-2--||
A |-------------------||
E |-------------------||

---Verse---
(Arpeggios)

E                  C#m            F#m    
   Dicen que la distancia es el olvido
 B7                       E
pero yo no concibo esa raz
Расскажи друзьям!




Войдите, используя Ваш аккаунт:



Забыли пароль?
Зарегистрироваться

Привет, гитарист!

Пройди супер-курс по гитаре и порази всех своей игрой!

Забрать курс!
ВАМ ПОДАРКИ ОТ ПРОЕКТА
"ГИТАРНАЯ РЕВОЛЮЦИЯ"