Gitaristu.ru
Аккорды Табулатура Начинающим Мастер-класс Софт Видео Форум Блог
Новости Анонсы Гитары Гитаристы Статьи Аватарки Минусовки
Поиск





Популярные подборы




Настройка гитары






Главная > Аккорды > T > Tryo

Аккорды
Tryo
-
Pour Un Flirt Avec La Crise (табулатура)



Подбор прислал: gitaristu.ru
|-----------7-5-7-| 
|---------7-------| 
|-------7---------| 
|-----7-----------| 
|---7-------------| 
|-7---------------| 


  Bm          G             A  Bm           G             A 
|-------10-------------------|-10/12-10--------------------| 
|-11/12-------12-12-12-10-10-|--------------12-12-12-10-10-| 
|----------------------------|-----------------------------| 
|----------------------------|-----------------------------| 
|----------------------------|-----------------------------| 
|----------------------------|-----------------------------| 

  Bm       G            A   etc. 
|-------10----------------|------------------|-12-10-------------| 
|-11/12----12-12-12-10-10-|-7-7-5-5-3-3-0-3--|-------12-10-10-10-| 
|-------------------------|------------------|-------------------| 
|-------------------------|------------------|-------------------| 
|-------------------------|------------------|-------------------| 
|-------------------------|------------------|-------------------| 

|-12--10---------------|-12--10----------|---------------| 
|----------12-10-10-10-|---------12--10--|----10---------| 
|----------------------|-----------------|-11----11-9-9-9| 
|----------------------|-----------------|---------------| 
|----------------------|-----------------|---------------| 
|----------------------|-----------------|---------------| 


Bm                   G            A 
Us
Расскажи друзьям!




Войдите, используя Ваш аккаунт:



Забыли пароль?
Зарегистрироваться

Привет, гитарист!

Пройди супер-курс по гитаре и порази всех своей игрой!

Забрать курс!
ВАМ ПОДАРКИ ОТ ПРОЕКТА
"ГИТАРНАЯ РЕВОЛЮЦИЯ"