Gitaristu.ru
Аккорды Табулатура Начинающим Мастер-класс Софт Видео Форум Блог
Новости Анонсы Гитары Гитаристы Статьи Аватарки Минусовки
Поиск





Популярные подборы




Настройка гитары






Главная > Аккорды > T > Tsar

Аккорды
Tsar
-
Band Girls Money (табулатура)



Подбор прислал: gitaristu.ru
I looked EVERYWHERE for this tab and couldn't find it, so i thought i'd have a go myself. enjoy!

-----------------------------------------------------------|
-----------------------------------------------------------|(play this
-----------------------------------------------------------| twice)
----9--9--7--8--9---9--9-9--9----9--9--7--8--9---9--9-9--9-|
----7--7--5--6--7---7--7-7--7----7--7--5--6--7---7--7-7--7-|
-----------------------------------------------------------|

then
--------------------------------------|
--------------------------------------|
--------------------------------------|
----9--9--7--8--9---7--7--7--2--2--2--|
----7--7--5--6--7---5--5--5--0--0--0--|
--------------------------------------|


--------------------------------------|
--------------------------------------|
--------------------------------------|
----9--9--7--8--9---7--7--7--7---7----|
----7--7--5--6--7---5--5--5--5---5----|
--------------------------------------|


--------------------------------------------------------------|
--------------------------------------------------------------|
--------------------------------------------------------------|
----9--9--7--8--9---7--7--7--2--2--2----5--5--5--7--7--7---9--|
----7--7--5--6--7---5--5--5--0--0--0----3--3--3--5--5--5---7--|
--------------------------------------------------------------|
Расскажи друзьям!




Войдите, используя Ваш аккаунт:



Забыли пароль?
Зарегистрироваться

Привет, гитарист!

Пройди супер-курс по гитаре и порази всех своей игрой!

Забрать курс!
ВАМ ПОДАРКИ ОТ ПРОЕКТА
"ГИТАРНАЯ РЕВОЛЮЦИЯ"