Gitaristu.ru
Аккорды Табулатура Начинающим Мастер-класс Софт Видео Форум Блог
Новости Анонсы Гитары Гитаристы Статьи Аватарки Минусовки
Поиск





Популярные подборы




Настройка гитары






Главная > Аккорды > T > Tubelord

Аккорды
Tubelord
-
I Am Azerrad bass (табулатура)



Подбор прислал: gitaristu.ru
-------------------------------------------------------------------------------
		 I Am Azerrad - Tubelord
-------------------------------------------------------------------------------

 Tabbed by:dvanwyk
 Email:dustinvanwyk@yahoo.com

 Tuning:Drop D 

 x2 (0.10)
G|--------------------------------|
D|-----------------4-5--5--5--5---|
A|2-22-2--4-----------------------|
D|----------2-2-00----------------|

G|----------------9-9-9-9--------------------|
D|-----------------------------4-5--5--5--5--|
A|2-2-2-2-2-2-2-2---------5-5----------------|
D|-------------------------------------------|

G|----------------------------|
D|------------2~----5~--------|
A|----------------------------|
D|2~----5~--------------------|

G|--------------------------------------------|
D|--------------------------------------------|
A|----2--------5--------2---------------------|
D|2-0------5-4------2-0------5-45-45--4-5-7---|


 x2
G|------------------------------------|--------------------|
D|------------------------------------|2~----5~------77----|
A|------------------------------------|--------------------|
D|0000000000000000-7777777777777777---|--------------------|
 
 x1
G|------------------------------------|----------------------------------|
D|------------------------------------|----------------5-5-5-5--5--5--5--|
A|------------------------------------|2-2-2-2-2-2-2-2-------------------|
D|0000000000000000-7777777777777777---|----------------------------------|


G|----------------------------------------------|
D|------/7~--------------555-7-555-7------------|
A|2-2-2-------------------------------3-3-3-----|
D|------------5555-777-2------------------------|

 x3
G|-------------------------------------------------------------------------------------|
D|-------------------------------------------------------------------------------------|
A|2-20-2-20-2h5-20-2h5--2-20-2-20-2h5-20-2h5-------------------------------------------|
D|-------------------------------------------5-54-5-54-54-4h5-54-4h5-2-2-2-2-7-7--8-8--|

 (2.07 - 2.18)
G|---------------|
D|---------------|
A|2-2--22--------|
D|---------------|

G|4-4--44--------|
D|---------------|
A|---------------|
D|---------------|
 
 (2.20 - 2.25)
G|---------------|
D|---------------|
A|2-2--22--------|
D|---------------|

G|---------------|
D|---------------|
A|2-2-2-2-2-2----|
D|---------------|

G|------------------------------|
D|------------------------------|
A|2~----5~----------------------|
D|------------5~----7~----------|

G|-----------------------------------------------------|
D|-----------------------------------------------------|
A|2222222222222222-5555555555555555--------------------|
D|----------------------------------5----777---77-88---|

 x3
G|----------------------------------------------------------------------|
D|----------------------------------------------------------------------|
A|2222222222222222-5555555555555555-------------------------------------|
D|----------------------------------5555555555555555-7777777777777777---|

G|----------------|
D|----------------|
A|222--2/---------|
D|----------------|
Расскажи друзьям!




Войдите, используя Ваш аккаунт:



Забыли пароль?
Зарегистрироваться

Привет, гитарист!

Пройди супер-курс по гитаре и порази всех своей игрой!

Забрать курс!
ВАМ ПОДАРКИ ОТ ПРОЕКТА
"ГИТАРНАЯ РЕВОЛЮЦИЯ"