Gitaristu.ru
Аккорды Табулатура Начинающим Мастер-класс Софт Видео Форум Блог
Новости Анонсы Гитары Гитаристы Статьи Аватарки Минусовки
Поиск





Популярные подборы




Настройка гитары






Главная > Аккорды > T > Tubelord

Аккорды
Tubelord
-
Night Of The Pencils bass (табулатура)



Подбор прислал: gitaristu.ru
-------------------------------------------------------------------------------
		 Night Of The Pencils - Tubelord
-------------------------------------------------------------------------------
 
 Tabbed by:dvanwyk
 Email:dustinvanwyk@yahoo.com

 Tuning:Drop D

 x8
G|-------------|
D|-------------|
A|-------------|
D|0~----4-5----|


G|------------------11~-----|
D|9~----9~----12-12---------|
A|--------------------------|
D|--------------------------|

G|-------14~----------11~---|
D|9--12---------12-12-------|
A|--------------------------|
D|--------------------------|

 x8
G|-------------|
D|-------------|
A|-------------|
D|0~----4-5----|

G|-------------------------------------------------------------------|
D|9-99-9-99--9-99-9-99------------------------9-99-9-99--------------|
A|----------------------5-55-5-55--5-55-5-55-------------9-99-9-99---|
D|-------------------------------------------------------------------|

G|---------------------------------------|
D|---------------------------------------|
A|7-7-77-7-7-77-10-10-1010-10-10-1010----|
D|---------------------------------------|

G|-----------------------------------7-7-7-7-7-7-7-777--|
D|------------------------------------------------------|
A|------------------------------------------------------|
D|0-0-0-0000-0-0------0-0-0-0000-0-0--------------------|

G|--------------------------------------------------------------------|
D|--------------------------------------------------------------------|
A|7777777777777777----------------------------------------------------|
D|-----------------9999999999999999-10101010101010101010101010101010--|

G|--------------------------------------------------------------------------------------|
D|--------------------------------------------------------------------------------------|
A|5555555555555555-7777777777777777------------------10101010101010101010101010101010---|
D|----------------------------------9999999999999999------------------------------------|

G|-------------------------------------------------------------------------------------|
D|-------------------------------------------------------------------------------------|
A|5555555555555555-7777777777777777----------------------------------------------------|
D|----------------------------------9999999999999999-10101010101010101010101010101010--|

G|------------------------------------------------------------------------------------|
D|----------------------------------999999999999999-----------------------------------|
A|5555555555555555-7777777777777777-----------------10101010101010101010101010101010--|
D|------------------------------------------------------------------------------------|

 Pause
 
 (2.05)
G|-------|
D|-------|
A|5------|
D|-------|

 x2
G|----------------------------------------------------|
D|----------------------------------------------------|
A|5-5-5-5-5-5-5-5-5-5-5-5-5---------------------------|
D|--------------------------7-7-7-7-7-7-5-5-5-5-5-5---|

G|-------------------------------------------------|
D|-------------------------------------------------|
A|5-55--5-55--5-55--5-55---------------------------|
D|0-00--0-00--0-00--0-00--7-7-7-7-7-7-5-5-5-5-5-5--|

G|-------------------------------------------------|
D|-------------------------------------------------|
A|-------------------------------------------------|
D|0-00--0-00--0-00--0-00-7-7-7-7-7-7-5-5-5-5-5-5---|

G|-------------------------------------------------|
D|-------------------------------------------------|
A|5-55--5-55--5-55--5-55---------------------------|
D|-----------------------7-7-7-7-7-7-5-5-5-5-5-5---|

 x3
G|----------------------------------|
D|----------------------------------|
A|55555555-77777777-----------------|
D|------------------555555555555----|

G|--------------------------------------|
D|--------------------------------------|
A|--------------------------------------|
D|2222222222222222-5555555555555555-----|

 x2
G|7777777777777777-9999999999999999------------------7777777777777777---|
D|----------------------------------5555555555555555--------------------|
A|----------------------------------------------------------------------|
D|----------------------------------------------------------------------|

 x2
G|------------------------------------------------------------------|
D|--------------------------------5-5-5-5-5-5-5-5-------------------|
A|5-5-5-5-5-5-5-5-7-7-7-7-7-7-7-7-----------------5-5-5-5-5-5-5-5---|
D|------------------------------------------------------------------|

 x2
G|----------------------------------------|
D|--------------5-5-----------------------|
A|5-5----7-7-----------5-5-5-5-5-5-5-5----|
D|----------------------------------------|

G|------------66--77-----|
D|----44--77-------------|
A|55---------------------|
D|-------------------0---|
Расскажи друзьям!




Войдите, используя Ваш аккаунт:



Забыли пароль?
Зарегистрироваться

Привет, гитарист!

Пройди супер-курс по гитаре и порази всех своей игрой!

Забрать курс!
ВАМ ПОДАРКИ ОТ ПРОЕКТА
"ГИТАРНАЯ РЕВОЛЮЦИЯ"