Gitaristu.ru
Аккорды Табулатура Начинающим Мастер-класс Софт Видео Форум Блог
Новости Анонсы Гитары Гитаристы Статьи Аватарки Минусовки
Поиск





Популярные подборы




Настройка гитары






Главная > Аккорды > T > Tubelord

Аккорды
Tubelord
-
Propeller bass (табулатура)



Подбор прислал: gitaristu.ru
-------------------------------------------------------------------------------
			     Propeller - Tubelord
-------------------------------------------------------------------------------

 Tabbed By :dvanwyk 
 e-mail:dustinvanwyk@yahoo.com 

 Intro (0.05 - 0.20)
G|--------------------------|
D|--------------------------|
A|--------------------------|
E|7777777777777777----------|

G|-------------------------------------------------------------------------|
D|-------------------------------------------------------------------------|
A|-----------------55555555555555555---------------------------------------|
E|7777777777777777-------------------555555555555555555-33333333333333333--|

G|---------------------------------------------------------------------------|
D|--------------------------5h7-5/4-5p4--------------------------------------|
A|-----------------55555555-------------5------------------------------------|
E|7777777777777777------------------------5555555555555555-3333333333333333--|

G|---------------------|
D|---------------------|
A|---------------------|
E|77-xx77-xx77-xx77----|

 
G|-----------------------------------------------|
D|-----------------------------------------------|
A|-----------------5555555555555555--------------|
E|7777777777777777------------------3333-5-0-----|

 
G|---------------------------------------------|
D|----2h3-2-----2h3-2-----3h4-3------3h4-3-----|
A|--------------------2-2-------2-2------------|
E|3-3-------3-3--------------------------------|

 x1
G|--------------|
D|--------------|
A|--5-5---------|
E|3-------------|

 x2
G|---------------|
D|---------------|
A|---------------|
E|3~----5~-------|

 Pause
 (1.58)
G|-----------------------------------------------------------------------|
D|-----------------------------------------------------------------------|
A|---/77777777777777777777-5555555555555555------------------------------|
E|77----------------------------------------7777777777777-555555555555---|

G|-------------------------------------------------------|
D|-------------------------------------------------------|
A|777777777777-555555555555------------------------------|
E|--------------------------777777777777777777777777-----|

G|------------------------------|
D|------------------------------|
A|-----5~-----------------------|
E|7~--------5~---3~-------------|

 x4
G|------------------------------------------------------------------------------------|
D|------------------------------77-55-4-5-4--------------------------------5555-4444--|
A|-----------------555555555555-------------5-----------7777-5555---------------------|
E|7777777777777777----------------------------555555555-----------33333333------------|

 x12
G|---------|
D|---------|
A|---------|
E|77-------|

G|----------------------------------------------------------------------|
D|----------------------------------------------------------------------|
A|-----------------5555555555555555-------------------------------------|
E|7777777777777777------------------5555555555555555-3333333333333333---|

G|---------------------|
D|---------------------|
A|---------------------|
E|77-xx77-xx77-xx77----|

Расскажи друзьям!




Войдите, используя Ваш аккаунт:



Забыли пароль?
Зарегистрироваться

Привет, гитарист!

Пройди супер-курс по гитаре и порази всех своей игрой!

Забрать курс!
ВАМ ПОДАРКИ ОТ ПРОЕКТА
"ГИТАРНАЯ РЕВОЛЮЦИЯ"