Gitaristu.ru
Аккорды Табулатура Начинающим Мастер-класс Софт Видео Форум Блог
Новости Анонсы Гитары Гитаристы Статьи Аватарки Минусовки
Поиск





Популярные подборы




Настройка гитары






Главная > Аккорды > T > Tubelord

Аккорды
Tubelord
-
Synthesize bass (табулатура)



Подбор прислал: gitaristu.ru
-------------------------------------------------------------------------------
		  Synthesize - Tubelord
-------------------------------------------------------------------------------

 Tabbed by:dvanwyk
 Email:dustinvanwyk@yahoo.com

 Tuning:Drop D

 x2
G|------------------------------|
D|5-5---------------9-9-99-9----|
A|-------------/7-9-------------|
D|----0-0-00-0------------------|

 x2
G|----------------------9-9-7-7--|
D|-------------------------------|
A|-------------------------------|
D|5-5-5-5-7-7-7-7-7-7-7----------|

G|--------------------------|
D|--------------------------|
A|------------------5~------|
D|5~----0~----5~------------|

 (0.50)
G|7~----/16~-14~----------12--12--12--12---|
D|----------------16~---14--14--14--14-----|
A|-----------------------------------------|
D|-----------------------------------------|

G|-------------------------------------------------------------|
D|---------------------5-5-5-5---9-9-9-9-----------------------|
A|2-2----7-7----3-3------------------------7-7-7-7---3-3-3-3---|
D|-------------------------------------------------------------|

 
G|----------------------------------------------------------|
D|--------------------------------/4-4-4-4-4-4-4-4-5-5-5-5--|
A|----------------------------------------------------------|
D|5-5-5-5-5-5-5-5-2-2-2-2-0-0-0-0---------------------------|

G|----------------------------------------------------------|
D|----------------------------------------------------------|
A|---------------------------------2-2-2-2-2-2-2-2-3-3-3-3--|
D|5-5-5-5-5-5-5-5-2-2-2-2-0-0-0-0---------------------------|


G|-------7-----9----9----------|
D|55---5---777--777------------|
A|--------------------7-7-55---|
D|-----------------------------|

 x3
G|-----------7----------9-----9----------|
D|55555555-5---7777-777---777------------|
A|------------------------------7-7-55---|
D|---------------------------------------|

G|------------------------------------|
D|55----------------------------------|
A|------------5----------7777-9999----|
D|--55555555-5--77777777--------------|

 x3
G|------------------------------------------|
D|555555555555------------------------------|
A|-------------5----------------77777-9999--|
D|------------5--77777777777777-------------|

 x2
G|--------------------------------------------------------------|
D|--------------------------------------------------------------|
A|-----------------------------------2222222222222222-33333333--|
D|5555555555555555-22222222-00000000----------------------------|

 x2
G|-------------------------------------|
D|-------------------------------------|
A|----------3----3----2-2-2-2-0-0-0-0--|
D|2----2-------------------------------|

 (3.03)
G|12-12-12-12-9-9-7-7---------7-7------|
D|--------------------9-9-9-9-----7-7--|
A|-------------------------------------|
D|-------------------------------------|

 x2
G|-----------------------------------------------------------------------|
D|-----------------------------------------------------------------------|
A|-----------------77777777-55555555-2222222222222222-55555555-----------|
D|5555555555555555---------------------------------------------77777777--|

G|12-12-12-12-12-12--9-9-9-7-7-7---7---9---7---9---7---9---7---9-7-7-7-------|
D|-------------------------------9---9---9---9---9---9---9---9---------7-7-7-|
A|---------------------------------------------------------------------------|
D|---------------------------------------------------------------------------|

G|--------------------------------7---9---7---9---7---9---7---9-------------|
D|------------------------------9---9---9---9---9---9---9---9---------------|
A|10-10-10-10-10-10-7-7-7-5-5-5---------------------------------5-5-5-------|
D|--------------------------------------------------------------------7-7-7-|

 x2
G|----------------------------------|
D|----------------------------------|
A|----------------2~----5~----------|
D|5~----2~--0~---------------7~-----|

G|------------|
D|5~----------|
A|------------|
D|------------|
Расскажи друзьям!




Войдите, используя Ваш аккаунт:



Забыли пароль?
Зарегистрироваться

Привет, гитарист!

Пройди супер-курс по гитаре и порази всех своей игрой!

Забрать курс!
ВАМ ПОДАРКИ ОТ ПРОЕКТА
"ГИТАРНАЯ РЕВОЛЮЦИЯ"