Gitaristu.ru
Аккорды Табулатура Начинающим Мастер-класс Софт Видео Форум Блог
Новости Анонсы Гитары Гитаристы Статьи Аватарки Минусовки
Поиск





Популярные подборы




Настройка гитары






Главная > Аккорды > T > Tunstall K T With Hall Daryl

Аккорды
Tunstall K T With Hall Daryl
-
If only (табулатура)



Подбор прислал: gitaristu.ru


IF ONLY (live version)---KT TUNSTALL  (As performed with Daryl Hall)  tab by TBerns
[this is only meant as a guide, add suspended chords and change finger picking as desired]
helpful comments are welcome

Intro:
      D***           C#***     C***           C#***
E--------0--0-------0--0---------0---0--------0---0-----------
B------3---3--3---2--2---2----1---1----1---2---2---2-------
G---4----4--4---3--3---3---2----2----2---3---3---3---------
D------------------------------------------------------------------
A---5------------4----------3--------------4--------------------
E------------------------------------------------------------------

    E***            G***          F#***     F***
E-----0----0--------0---0-------0--0---------0---0------
B----3---3---3----3---3--3---2--2---2----1---1----1---
G--4---4---4----4---4--4---3--3---3---2----2----2----
D-----------------------------------------------------------
A----------------------------------------------------------
E--0-------------3------------2-----------1--------------

Verse:
E                               Am         CaddF           G     Gsus4
Walking around in a daze after days now its been
E                      Am                CaddF        G
Talking it up is amazing and amazed that I'm in
E                                             Am          CaddF       D
Looking at the stars for the answers but all that you found
         E   G*         F#*  F*                                                         *(play with open B and E notes)
Was silence and dirty ground

Chorus:
E                 A** B**  C#m                      A**= x04224   or  Badd5 or play  Emaj7
If only you could see me now                  B**= x22442
E                 A** B** C#m
If only you could hear me out
A (add g#)  A              B B9  E  Esus4   E
If             only it was only me now

Verse:
Listen just a little bit harder for I always tell the truth
It isn't just a piston in an engine that keeps you moving
Looking like you're looking for something and now You're surrounded by
silence

Chorus
Bridge
E                                E           C            D
You're surrounded by silence, silence, silence
D                                E           C            D
You're surrounded by silence, silence, silence

(play intro chords over next portion)
                              D***           C#***     C***           C#***
You're surrounded by silence, silence,silence
                                         E***            G***          F#***     F***
oh You're surrounded by silence silence silence

Chorus x 2


Расскажи друзьям!




Войдите, используя Ваш аккаунт:



Забыли пароль?
Зарегистрироваться

Привет, гитарист!

Пройди супер-курс по гитаре и порази всех своей игрой!

Забрать курс!
ВАМ ПОДАРКИ ОТ ПРОЕКТА
"ГИТАРНАЯ РЕВОЛЮЦИЯ"