Gitaristu.ru
Аккорды Табулатура Начинающим Мастер-класс Софт Видео Форум Блог
Новости Анонсы Гитары Гитаристы Статьи Аватарки Минусовки
Поиск





Популярные подборы




Настройка гитары






Главная > Аккорды > T > Tush

Аккорды
Tush
-
Acostumbrado



Подбор прислал: gitaristu.ru
Pues aki les dejo esta cancion que la verdad esta muy buena estos 
chavos tocan muy bn es un grupo nuevo que realmente se esta 
escuchando mucho la verdad esto lo saque yo y pues se no estoy 
seguro si esta bien pero ps ami me parecio que se escucha bien
espero y les guste para cualquier sugerencia o algun comentario 
mi correo es bone_punk_6_7@hotmail.com


Tuning: Standard



intro      Verse (Cesar) part1

e|--0--0--0--0-----0-----0-----|
B|--0--0--0--0-----0-----0-----|
G|--9--8--9--6-----6-----6-----|   (x2)
D|--9--9--9--7-----6-----7-----|
A|--7--7--7--7-----4-----7-----|
E|--x--x--x--5-----x-----5-----|



Verse (Carlos mario) part2

e|--0----0----0----0----0---0--|
B|--0----0----0----0----0---0--|
G|--6----2----6----2----2---4--|
D|--6----2----6----2----2---4--|
A|--4----0----4----0----0---2--|
E|--x----x----x----x----x---x--|



Chorus

e|--0----0----0----0----0----0----0----0--|
B|--0----0----0----0----0----0----0----0--|
G|--9----6----6----6----8----6----8----6--|
D|--9----7----6----7----9----7----9----7--|
A|--7----7----4----7----9----7----9----7--|
E|--x----5----x----5----7----5----7----5--|



solo

e|--0----0----0----0--|
B|--0----0----0----0--|
G|--9----6----6----6--|
D|--9----7----6----7--|
A|--7----7----4----7--|
E|--x----5----x----5--|



Verse (Cesar)

Como me encanta oir
ese juego de palabras
cuando aun estoy despierto
en el silencio aqui en la cama

sin colgar en el telefono
depronto nos amanece
siento tan rapido el tiempo
hasta la luna se desbanece

Verse(Carlos Mario)

como quiziera hoy tenerte a mi lado
y decirte lo mucho que te extra
Расскажи друзьям!




Войдите, используя Ваш аккаунт:



Забыли пароль?
Зарегистрироваться

Привет, гитарист!

Пройди супер-курс по гитаре и порази всех своей игрой!

Забрать курс!
ВАМ ПОДАРКИ ОТ ПРОЕКТА
"ГИТАРНАЯ РЕВОЛЮЦИЯ"