Gitaristu.ru
Аккорды Табулатура Начинающим Мастер-класс Софт Видео Форум Блог
Новости Анонсы Гитары Гитаристы Статьи Аватарки Минусовки
Поиск





Популярные подборы




Настройка гитары






Главная > Аккорды > T > Two Tongues

Аккорды
Two Tongues
-
Interlude (табулатура)



Подбор прислал: gitaristu.ru
"And they meet...                                      Late on a saturday"
e|-----------------------------------------------------------------|
B|-----------------------------------------------------------------|
G|---------0-------0-------5/--------------------------------------|        
D|-------2-------0-------5-----------------2--------2---------2----|
A|----0-------2-------3-----------------3----3---3--- 3----3----3--|
E|------------------------------------1--------1--------1----------|

And they meet
Late on a Saturday
In the grip
Of winter's chapped lips
One's blind
To all he has inside
One's sure
That he knows what life's got in store

"And when...       Stars   Drunks     Bar
e|------------------------------------------------|
B|------------------------------------------------|
G|------------------------------------------------|       
D|-----2-----------0---------2--------2-----------|
A|-----3-----------2---------2--------3-----------|
E|-----1-----------3---------0--------1-----------|

And when the stars
And drunks have left the bar
He says we've just met
But I've seen you around
Can we share a  car
Back to my place with movies made about outer space
And so it seems they're off to share their wasted dreams
Расскажи друзьям!




Войдите, используя Ваш аккаунт:



Забыли пароль?
Зарегистрироваться

Привет, гитарист!

Пройди супер-курс по гитаре и порази всех своей игрой!

Забрать курс!
ВАМ ПОДАРКИ ОТ ПРОЕКТА
"ГИТАРНАЯ РЕВОЛЮЦИЯ"