Gitaristu.ru
Аккорды Табулатура Начинающим Мастер-класс Софт Видео Форум Блог
Новости Анонсы Гитары Гитаристы Статьи Аватарки Минусовки
Поиск





Популярные подборы




Настройка гитары






Главная > Аккорды > V > Vains Of Jenna

Аккорды
Vains Of Jenna
-
Dont Give A Damn bass (табулатура)



Подбор прислал: gitaristu.ru
Artist:Vains Of Jenna
Song:Don't Give A Damn
Album:Lit Up/Let Down
Bassist:JP White
Tabber:Dev Fuld

Alright, so...I recieved a request for this tune, and it's a really kickass tune. But
the catch...ya gotta play it sleazy, just like JP!
I did the best I could with this tab, some stuff may be a little off, but for the most
it's correct.

Key:
x = Times a number
* = Let it ring

Intro
G:---------|R|--------------|-----------------------------|
D:---------|E|--------------|--------------5-3------------|
A:2-0------|S|--------------|------------------5-3--------|
E:----3x120|T|3x32-1x16-3x16|3x32-1x16-3x8---------5-3-4-5|

If you want to do it, that catchy little main riff goes...
G:---------------|
D:---------------|
A:4-4-3-3-1-1-1--|
E:--------------3|

Verse
G:-----------------|-----------------|
D:-----------------|-----------------|
A:-----------------|-----------------|
E:5x32-3x8-2x8-5x16|5x32-3x8-2x8-5x16|

G:-----------------|-----------------2-0------------|
D:-----------------|---------------------2-0--------|
A:-----------------|-------------------------2-0----|
E:5x32-3x8-2x8-5x16|5x32-3x8-2x8-5x8-------------2-0|

Pre-Chorus
G:--------|-----------|
D:--------|-----------|
A:1*------|1*------4x8|
E:----3*--|----1x8----|

Chorus
G:-----------------|-----------------|------------|
D:1-1--------------|1-1--------------|------------|
A:----1---------3x8|----1---------3x8|1x16-3x8-4x4|
E:------3x8-1x8----|------3x8-1x8----|------------|

G:--------------|
D:1-1-----------|
A:----1---------|
E:------3x8-1*--|

After Chorus
G:-----------------------------|
D:--------------5-3------------|
A:------------------5-3--------|
E:3x32-1x16-3x8---------5-3-4-5|

Verse

Pre-Chorus

Chorus 2
G:-----------------|-----------------|------------|
D:1-1--------------|1-1--------------|------------|
A:----1---------3x8|----1---------3x8|1x16-3x8-4x4|
E:------3x8-1x8----|------3x8-1x8----|------------|

G:--------------|
D:1-1-------3*--|
A:----1---------|
E:------3x8-----|

Solo
G:---------------------|---------------------|
D:2*--2--2--0-2-0-2-0-2|2*--2--2--0-2-0-2-0-2|
A:---------------------|---------------------|
E:---------------------|---------------------|

G:---------------------|---------------------|
D:---------------------|---------------------|
A:---------------------|---------------------|
E:3*--3--3--2-3-2-3-2-3|3*--3--3--2-3-2-3-2-3|

G:----------------------------------|
D:----------------------------------|
A:----------------------------------|
E:3*--3--3-2--2--2--1*--1--1-0--0--0|

G:---------------------|---------------------|
D:---------------------|---------------------|
A:---------------------|---------------------|
E:3*--3--3--2-3-2-3-2-3|3*--3--3--2-3-2-3-2-3|

G:------------------|------------------|
D:------------------|------------------|
A:------------------|------------------|
E:5*--5--555-555-555|5*--5--555-555-555|

G:-----|------------------------------|
D:-----|------------------------------|
A:-----|0-0-0-1-1-1-2-2-2-3-3-3-4-4-5*|
E:5*--5|------------------------------|

Pre-Chorus

Chorus 3
G:-----------------|-----------------|
D:1-1--------------|1-1--------------|
A:----1---------3x8|----1---------3x8|
E:------3x8-1x8----|------3x8-1x8----|

G:---------------------|---------------------|
D:1*-1*----------------|1*-1*----------------|
A:-------1*---------3x8|-------1*---------3x8|
E:----------3x8-1x8----|----------3x8-1x8----|

G:---------------------|---------------------|
D:1*-1*----------------|1*-1*----------------|
A:-------1*---------3x8|-------1*---------3x8|
E:----------3x8-1x8----|----------3x8-1x8----|

G:------------|
D:------------|
A:1x16-3x8-4x4|
E:------------|

End
G:--------------------------------------|
D:1-1-----------------------------------|
A:----1---------------------------------|
E:------3x8-1--1--1--1--1--1--1--1--3*--|

G:----------------|
D:----------------|
A:4-4-3-3-1-1-1---|
E:--------------3*|

That's it! Like I said, some stuff may be a little off, but that's OK because you still
the flow of the song. The tab may also look a little confusing, but it's really
just have to look at it carefully!I already put it in order for you, so all you gotta do 
plug in and play! Any questions or comments, e-mail me at rocklvson@yahoo.com


~Keep It Sleazy
Расскажи друзьям!




Войдите, используя Ваш аккаунт:



Забыли пароль?
Зарегистрироваться

Привет, гитарист!

Пройди супер-курс по гитаре и порази всех своей игрой!

Забрать курс!
ВАМ ПОДАРКИ ОТ ПРОЕКТА
"ГИТАРНАЯ РЕВОЛЮЦИЯ"