Gitaristu.ru
Аккорды Табулатура Начинающим Мастер-класс Софт Видео Форум Блог
Новости Анонсы Гитары Гитаристы Статьи Аватарки Минусовки
Поиск





Популярные подборы




Настройка гитары






Главная > Аккорды > V > Valley Of Chrome

Аккорды
Valley Of Chrome
-
Art Of Letting Go bass (табулатура)



Подбор прислал: gitaristu.ru
-----------------------------------------------------------------
The Art Of Letting Go - Valley Of Chrome
-----------------------------------------------------------------

Tabbed By : Joseph(bass)0_o - Eskalapepangbeam band
e-mail: say0na_tsi@yahoo.com

Tuning:standard


intro:
G|---------------------------------------------------------------|
D|---------------------------------------------------------------| 
A|---------------------------------------------------------------|
E|-8-7-5~--1--3------5--1--3---------5--1--3---------------------|

G|---------------------------------------------------------------|
D|---------------------------------------------------------------|
A|---------------------------------------------------------------|
E|-5--1--3-------------------------------------------------------|

stanza:
G|---------------------------------------------------------------|
D|---------------------------------------------------------------|
A|---------------------------------------------------------------|
E|-8-7-5---3-\-/-2---00------------------------------------------|

pre-chorus:
G|---------------------------------------------------------------|
D|--3--5--\------3--5--------------------------------------------|
A|-3--5----2x---3--5---------------------------------------------|
E|1--3--5-/----1--3---8-----1-1-1---2----------------------------|

chorus:
G|---------------------------------------------------------------|
D|---------------------------------------------------------------| 
A|---------------------------------------------------------------|
E|-8-7-5~--1--3------5--1--3---------5--1--3---------------------|

stanza:
G|---------------------------------------------------------------|
D|---------------------------------------------------------------|
A|---------------------------------------------------------------|
E|-8-7-5---3\-/-2---00-----------------------------------------------|

chorus:
G|---------------------------------------------------------------|
D|---------------------------------------------------------------| 
A|---------------------------------------------------------------|
E|-8-7-5~--1--3------5--1--3---------5--1--3---------------------|

adlib:
do chorus 2 or 4 times

bridge:
G|---------------------------------------------------------------|
D|---------------------------------------------------------------|
A|-2------5------------------------------------------------------|
E|--2--3---5-----------------------------------------------------|

ends at b

VoC ROOCKS!!!!! idol 

| /  slide up
| \  slide down
| h  hammer-on
| p  pull-off
| ~  vibrato
| +  harmonic
| x  Mute note


para to sa inyong lahat!!! 
eskalapepangbeam:
daryl|richmond|andrew|joseph|caloy|
friends:
allanpuge|buko|pepper|meow|imaw|ippo|judi|saydie
aeron|robin|fish|tuligi|bonto|waaa lahat na!!
4-st.paul ASTIG!! mamatay din kayo!!!!


Расскажи друзьям!




Войдите, используя Ваш аккаунт:



Забыли пароль?
Зарегистрироваться

Привет, гитарист!

Пройди супер-курс по гитаре и порази всех своей игрой!

Забрать курс!
ВАМ ПОДАРКИ ОТ ПРОЕКТА
"ГИТАРНАЯ РЕВОЛЮЦИЯ"