Gitaristu.ru
Аккорды Табулатура Начинающим Мастер-класс Софт Видео Форум Блог
Новости Анонсы Гитары Гитаристы Статьи Аватарки Минусовки
Поиск





Популярные подборы




Настройка гитары






Главная > Аккорды > V > Valley Of Chrome

Аккорды
Valley Of Chrome
-
Kiss Of Medusa (табулатура)



Подбор прислал: gitaristu.ru
Kiss of Medusa Tab by Valley Of Chrome, www.Ultimate-Guitar.Com

Song: Kiss of Medusa
Artist: Valley of Chrome
Date Tabbed: April 16, 2009
Guitar Tabber: Danzel Galera/16/m/Aringay, La Union
              shadowsfall031@yahoo.com(Friendster&YM)
              09099974838(Sun Cell)

Gtr.Legends:
~ - LET IT RING
x - DEAD STRING
. - PALM MUTING
b - BEND

Gtr.Tuning:drop D

Intro: 

e|------------|
B|------------|
G|------------|
D|------------|
A|------------|
d|--14/4------|

e|-------------------------|	 --------------------|
B|-------------------------|	 --------------------|	
G|-------------------------|	 --------------------|
D|-------------------------|	 --------------------|
A|---------5---7---7s8-7---|	 ----5---8p7---7-----|
d|------0----0---0---------|3x       --0---0-----0-------|
	.    .   . 		   .   .     .
e|-------------------------|	 --------------------|
B|-------------------------|	 --------------------|	
G|-------------------------|	 --------------------|
D|-------------------------|	 --------------------|
A|---------5---7---7s8-7---|	 ----5---8p7---7-----|
d|------0----0---0---------|3x       --0---0-----0-------|
	.    .   . 		   .   .     .
						      
Verse: 

e|---------------------------|	 --------------------|
B|---------------------------|	 --------------------|	
G|---------------------------|	 --------------------|
D|---------------------------|	 --------------------|
A|----------5---7---7s8-7----|	 ----5---8p7---7-----|
d|--------0----0---0---------|3x --0---0-----0-------|
 	  .    .   .               .   .     .

e|-------------------------------------------------|
B|-------------------------------------------------|
G|-------------------------------------------------|
D|---------------------------------3-333-3p2-0-----|
A|--------5--7------8-7------7-8---3-333----3------|
d|---0000--0---0000--0--0000--0----3-333-----------|2X
     ....  .   ....  .  ....  .      ... 
Chorus:

e|--------------------------------------|
B|---------------8-7-6------------------|
G|--7-9-10-9--55-------77---------------|
D|-------------------------3-333
Расскажи друзьям!




Войдите, используя Ваш аккаунт:



Забыли пароль?
Зарегистрироваться

Привет, гитарист!

Пройди супер-курс по гитаре и порази всех своей игрой!

Забрать курс!
ВАМ ПОДАРКИ ОТ ПРОЕКТА
"ГИТАРНАЯ РЕВОЛЮЦИЯ"