Gitaristu.ru
Аккорды Табулатура Начинающим Мастер-класс Софт Видео Форум Блог
Новости Анонсы Гитары Гитаристы Статьи Аватарки Минусовки
Поиск





Популярные подборы




Настройка гитары






Главная > Аккорды > V > Valley Of Chrome

Аккорды
Valley Of Chrome
-
The Art Of Letting Go (табулатура)



Подбор прислал: gitaristu.ru
The Art of Letting Go
Artist: Valley of Chrome
Tabbed by: Stephen Laiz
Email: mollecoddle.phen@gmail.com

This is my first tab, the first part I got from my friend tapos kinapa
ko na lang ung iba, paki rate na lang po!

Tuning:
e
B
G
D
A
D(Drop Low E to D)

Here's how it goes...

Intro	       Pre-Verse(7x) and Chorus(4x)
|---x-x-x-----||-x--x-x-x--x--x-x-x-x-x-x-x-x--|
|---x-x-x-----||-x--x-x-x--x--x-x-x-x-x-x-x-x--|
|---x-x-x-----||-x--x-x-x--x--x-x-x-x-x-x-x-x--|
|--10-9-7-----||-7-10-0-9-10--0-0-3-3s5-5s7-7--|
|--10-9-7-----||-7-10-0-9-10--0-0-3-3s5-5s7-7--|
|--10-9-7-----||-7-10-0-9-10--0-0-3-3s5-5s7-7--|

Verse & refrain(palm mute)	Pre-Chorus
|--x----x-----|		|-x---x---x--------------------|
|--x----x-----|		|-x---x---x--------------------|
|--x----x-----|		|-x---x---x--------------------|
|--7----5-----|		|-3---5---7--------------------|
|--7----5-----|		|-3---5---7--------------------|
|--7----5-----|		|-3---5---7--------------------|


(Rhythm Guitar for the solo part is the same from the Intro
and Chorus so you just continually play it from the Chorus)

Bridge
|-----------------------------------------|
|-----------------------------------------|
|-----------------------------------------|
|-----------------------------------------|6x
|--2-2-4h5p4-0--2-2-4h5p4-----------------|
|-----------------------------------------|



Outro:
|-----------------------------------------|
|-----------------------------------------|
|----4-4-6h7p7
Расскажи друзьям!




Войдите, используя Ваш аккаунт:



Забыли пароль?
Зарегистрироваться

Привет, гитарист!

Пройди супер-курс по гитаре и порази всех своей игрой!

Забрать курс!
ВАМ ПОДАРКИ ОТ ПРОЕКТА
"ГИТАРНАЯ РЕВОЛЮЦИЯ"