Gitaristu.ru
Аккорды Табулатура Начинающим Мастер-класс Софт Видео Форум Блог
Новости Анонсы Гитары Гитаристы Статьи Аватарки Минусовки
Поиск





Популярные подборы




Настройка гитары






Главная > Аккорды > V > Valley Of Chrome

Аккорды
Valley Of Chrome
-
When Everthing Turns To Dust (табулатура)



Подбор прислал: gitaristu.ru
Intro:
E ----------------------------------------------------|
B-----------------------------------------------------|
G-----------------------------------------------------|
D-2-2-2-2-2-2-2-4-5-4h5p4-2-0-------------------------|
A-2-2-2-2-2-2-2----------------- ---------------2-----|times
E-2-2-2-2-2-2-2---------------------------------------|


Stanza;
E----------------------------------------------------|
B----------------------------------------------------|
G----------------------------------------------------|
D------9-9-10-9
Расскажи друзьям!




Войдите, используя Ваш аккаунт:



Забыли пароль?
Зарегистрироваться

Привет, гитарист!

Пройди супер-курс по гитаре и порази всех своей игрой!

Забрать курс!
ВАМ ПОДАРКИ ОТ ПРОЕКТА
"ГИТАРНАЯ РЕВОЛЮЦИЯ"