Gitaristu.ru
Аккорды Табулатура Начинающим Мастер-класс Софт Видео Форум Блог
Новости Анонсы Гитары Гитаристы Статьи Аватарки Минусовки
Поиск





Популярные подборы




Настройка гитары






Главная > Аккорды > V > Vampire Weekend

Аккорды
Vampire Weekend
-
Bryn bass (табулатура)



Подбор прислал: gitaristu.ru
Start at 0:08
G|-------------------------------11-11-11-|
D|---11-11-11-11-11-11-9--9--9-12-12-12---|  4X
A|--12-12-12-12-12-12-10-10-10------------|
E|----------------------------------------|

G|---------------------------------------------------|
D|---------------------------------------------------|
A|--12-12-12-12-------------12-12-12-12--------------|
E|--------------12-12-12-12-------------12-12-12-12--|

G|---------------------------------------------------|
D|--------------------------------------12-12-12-12--|
A|--12-12-12-12-------------12-12-12-12--------------|
E|--------------12-12-12-12--------------------------|

G|-------------------------------11-11-11-|
D|---11-11-11-11-11-11-9--9--9-12-12-12---|  4X
A|--12-12-12-12-12-12-10-10-10------------|
E|----------------------------------------|

G|-------------------------------11-11-11-|
D|-----------------------------12-12-12---|  4X
A|--12-12-12-12-12-12-10-10-10------------|
E|----------------------------------------|

G|-------------------------------------------------------|
D|-------------------------------------------------------|
A|--12-12-12-12-------------12-12-12-12------------------|
E|--------------12-12-12-12-------------12-12-12-12------|

G|---------------------------------------------------|
D|--------------------------------------12-12-12-12--|
A|--12-12-12-12-------------12-12-12-12--------------|
E|--------------12-12-12-12--------------------------|

G|-------------------------------11-11-11-|
D|---11-11-11-11-11-11-9--9--9-12-12-12---|  4X
A|--12-12-12-12-12-12-10-10-10------------|
E|----------------------------------------|

G|-------------------------------11-11-11-|
D|-----------------------------12-12-12---|  4X
A|--12-12-12-12-12-12-10-10-10------------|
E|----------------------------------------|

G|----------------------------------------|
D|----------------------------------------|  4X
A|-12-12-12-12-12-12-12-12----------------|
E|----------------------------------------|

------------
Please Rate!
Расскажи друзьям!




Войдите, используя Ваш аккаунт:



Забыли пароль?
Зарегистрироваться

Привет, гитарист!

Пройди супер-курс по гитаре и порази всех своей игрой!

Забрать курс!
ВАМ ПОДАРКИ ОТ ПРОЕКТА
"ГИТАРНАЯ РЕВОЛЮЦИЯ"