Gitaristu.ru
Аккорды Табулатура Начинающим Мастер-класс Софт Видео Форум Блог
Новости Анонсы Гитары Гитаристы Статьи Аватарки Минусовки
Поиск





Популярные подборы




Настройка гитары






Главная > Аккорды > V > Vampire Weekend

Аккорды
Vampire Weekend
-
Ladies Of Cambridge (табулатура)



Подбор прислал: gitaristu.ru
Vampire Weekend - Ladies Of Cambridge


Intro/main riff:

e|------------------------------------------|
B|------------------------------------------|    X4
G|--2-xx---xx-3-xx---xx---xx-2-xx---xx-2----|
D|--3-xx-7-xx-3-xx-7-xx-8-xx-3-xx-7-xx-3----|
A|--3-xx-7-xx-1-xx-7-xx-8-xx-3-xx-7-xx-3----|
E|--1-xx-5-xx---xx-5-xx-6-xx-1-xx-5-xx-1----|


I've had dreams of...
e|--------------------------------------|
B|--------------------------------------|    X2
G|-------------------2-2-2-2-2-2-2-2----|
D|--3-3-3-3-3-3-3-3--3-3-3-3-3-3-3-3----|
A|--3-3-3-3-3-3-3-3--3-3-3-3-3-3-3-3----|
E|--1-1-1-1-1-1-1-1--1-1-1-1-1-1-1-1----|


But if you leave...
e|---------------------|
B|---------------------|
G|---------------------|
D|--7-7-7-7-7-7-7-8----|
A|--7-7-7-7-7-7-7-8----|
E|--5-5-5-5-5-5-5-6----|


   Take  it!
e|------------|
B|------------|    X4
G|--2----3----|
D|--3----3----|
A|--3----1----|
E|--1---------|
Расскажи друзьям!




Войдите, используя Ваш аккаунт:



Забыли пароль?
Зарегистрироваться

Привет, гитарист!

Пройди супер-курс по гитаре и порази всех своей игрой!

Забрать курс!
ВАМ ПОДАРКИ ОТ ПРОЕКТА
"ГИТАРНАЯ РЕВОЛЮЦИЯ"