Gitaristu.ru
Аккорды Табулатура Начинающим Мастер-класс Софт Видео Форум Блог
Новости Анонсы Гитары Гитаристы Статьи Аватарки Минусовки
Поиск





Популярные подборы




Настройка гитары






Главная > Аккорды > V > Vampire Weekend

Аккорды
Vampire Weekend
-
Little giant (табулатура)



Подбор прислал: gitaristu.ru


-------------------------------------------------------------------------------
			     Little Giant – Vampire Weekend
-------------------------------------------------------------------------------
Tabbed by: Jared Le Doux
Email: lomlonde@gmail.com

Tuning: E-A-D-G-B-E

	Guitar 1:							repeat

e|------7-9----9999------7-9---9999—-10-9-7----------------10---9-7----------
|
B|---10-----------10----10--------10-------10-9-77----7777-----------10-9-7-
|
G|-9-----------------9-----------------------------------7-----------------9-
|
D|-------------------------------------------------------------------------9-|
A|---------------------------------------------------------------------------|
E|---------------------------------------------------------------------------|
	Guitar 2:
	First set of seventeens played rapidly				repeat
e|-17-17-17-17-17-17-17---17--17--16-14---12---12-12-12-12---12---14-12------|
B|----------------------------------------------------------------------15---|
G|---------------------------------------------------------------------------|
D|---------------------------------------------------------------------------|
A|---------------------------------------------------------------------------|
E|---------------------------------------------------------------------------|

e|-----------------12--------------------------------------------------------|
B|-14--14--14----14---15-14---12--12--12-------------------------------------|
G|---------------------------------------------------------------------------|
D|---------------------------------------------------------------------------|
A|---------------------------------------------------------------------------|
E|---------------------------------------------------------------------------|

| /  slide up
|   slide down
| h  hammer-on
| p  pull-off
| ~  vibrato
| +  harmonic
| x  Mute note
===============================================================================



Расскажи друзьям!




Войдите, используя Ваш аккаунт:



Забыли пароль?
Зарегистрироваться

Привет, гитарист!

Пройди супер-курс по гитаре и порази всех своей игрой!

Забрать курс!
ВАМ ПОДАРКИ ОТ ПРОЕКТА
"ГИТАРНАЯ РЕВОЛЮЦИЯ"