Gitaristu.ru
Аккорды Табулатура Начинающим Мастер-класс Софт Видео Форум Блог
Новости Анонсы Гитары Гитаристы Статьи Аватарки Минусовки
Поиск





Популярные подборы




Настройка гитары






Главная > Аккорды > V > Vampire Weekend

Аккорды
Vampire Weekend
-
M79 bass (табулатура)



Подбор прислал: gitaristu.ru
Vampire Weekend - M79

tabbed by: owl tiem
email: inediblepenguin@gmail.com

Tuning: Standard

intro
--4--4--4--2--0--0--0--2--4--4--4--2--0--0--0--2--5--5--5--7--4--4--4-----------------------|
-5--5--5--4--2--2--2--4--5--5--5--4--2--2--2--4--7--7--7--9--5--5--5--4-44-5-4-44-5-4-44-4--|
--------------------------------------------------------------------------------------------|
--------------------------------------------------------------------------------------------|

it's gonna take a little time
--4--4--4--2--0--0--0--2--4--4--4--2--0--0--0--2--5--5--5--7--4--4--4-----------------------|
-5--5--5--4--2--2--2--4--5--5--5--4--2--2--2--4--7--7--7--9--5--5--5--4-44-5-4-44-5-4-44-4--|
--------------------------------------------------------------------------------------------|
--------------------------------------------------------------------------------------------|

so go i know you will not stay
--4--4--4--2--0--0--0--2--4--4--4--2--0--0--0--5--5--5--5--7--4--4--4-----------------------|
-5--5--5--4--2--2--2--4--5--5--5--4--2--2--2--4--7--7--7--9--5--5--5--4-44-5-4-44-5-4-44-4--|
--------------------------------------------------------------------------------------------|
--------------------------------------------------------------------------------------------|

instrumental
----------------------------------------------------------------|
5-7----5-7-9----5-7----5-7-5----5-7----5-7-9----5-7----5-7-5----|
----------------------------------------------------------------|
----------------------------------------------------------------|

instrumental
--4--4--4--2--0--0--0--2--4--4--4--2--0--0--0--2-|
-5--5--5--4--2--2--2--4--5--5--5--4--2--2--2--4--|
-------------------------------------------------|
-------------------------------------------------|

you walk up the stairs
--4--4--4--2--0--0--0--2--4--4--4--2--0--0--0--2--5--5--5--7--4--4--4-----------------------|
-5--5--5--4--2--2--2--4--5--5--5--4--2--2--2--4--7--7--7--9--5--5--5--4-44-5-4-44-5-4-44-4--|
--------------------------------------------------------------------------------------------|
--------------------------------------------------------------------------------------------|

so go i know you would not stay
--4--4--4--2--0--0--0--2--4--4--4--2--0--0--0--2--5--5--5--7--4--4--4-----------------------|
-5--5--5--4--2--2--2--4--5--5--5--4--2--2--2--4--7--7--7--9--5--5--5--4-44-5-4-44-5-4-44-4--|
--------------------------------------------------------------------------------------------|
--------------------------------------------------------------------------------------------|

instrumental
----------------------------------------------------------------------|
5-7----5-7-9----5-7----5-7-5----5-7----5-7-9----5-7----5-7-5--5-5-5-5-|
----------------------------------------------------------------------|
----------------------------------------------------------------------|

no excuse to be so callous
----------------------------------------------------------------|
2-2-2-2-4-4-4-4-5-5-5-5-2-2-2-2-2-2-2-2-4-4-4-4-5-5-5-5-5-5-5-5-|
----------------------------------------------------------------|
----------------------------------------------------------------|

stay awake to break the habit
----------------------------------------------------------------|
2-2-2-2-4-4-4-4-5-5-5-5-2-2-2-2-2-2-2-2-4-4-4-4-5-5-5-5-5-5-5-5-|
----------------------------------------------------------------|
----------------------------------------------------------------|

instrumental
--4--4--4--2--0--0--0--2--4--4--4--2--0--0--0--5--5--5--5--7--4--4--4-----------------------|
-5--5--5--4--2--2--2--4--5--5--5--4--2--2--2--4--7--7--7--9--5--5--5--4-44-5-4-44-5-4-44-4--|
--------------------------------------------------------------------------------------------|
--------------------------------------------------------------------------------------------|

instrumental
----------------------------------------------------------------------|
5-7----5-7-9----5-7----5-7-5----5-7----5-7-9----5-7----5-7-5--5-5-5-5-|
----------------------------------------------------------------------|
----------------------------------------------------------------------|

no excuse to be so callous
----------------------------------------------------------------|
2-2-2-2-4-4-4-4-5-5-5-5-2-2-2-2-2-2-2-2-4-4-4-4-5-5-5-5-5-5-5-5-|
----------------------------------------------------------------|
----------------------------------------------------------------|

stay awake to break the habit
----------------------------------------------------------------|
2-2-2-2-4-4-4-4-5-5-5-5-2-2-2-2-2-2-2-2-4-4-4-4-5-5-5-5-5-5-5-5-|
----------------------------------------------------------------|
----------------------------------------------------------------|

instrumental
--4--4--4--2--0--0--0--2--4--4--4--2--0--0--0--2---|
-5--5--5--4--2--2--2--4--5--5--5--4--2--2--2--4--5-|
---------------------------------------------------|
---------------------------------------------------|
Расскажи друзьям!




Войдите, используя Ваш аккаунт:



Забыли пароль?
Зарегистрироваться

Привет, гитарист!

Пройди супер-курс по гитаре и порази всех своей игрой!

Забрать курс!
ВАМ ПОДАРКИ ОТ ПРОЕКТА
"ГИТАРНАЯ РЕВОЛЮЦИЯ"