Gitaristu.ru
Аккорды Табулатура Начинающим Мастер-класс Софт Видео Форум Блог
Новости Анонсы Гитары Гитаристы Статьи Аватарки Минусовки
Поиск





Популярные подборы




Настройка гитары






Главная > Аккорды > V > Vampire Weekend

Аккорды
Vampire Weekend
-
Ottoman bass (табулатура)



Подбор прислал: gitaristu.ru
Ottoman by Vampire Weekend
bass part

(0:09-0:35)
|-----------------------------------| x6
|-----------------------------------|
|----8---8-3---3-----3---3---6---6--|
|--6---6-----3---3-4---4---4---4----|


(0:36-1:02)
|-----------------------| x6
|-----------------------|
|----------3-----6---6--|
|--6-6-8-3---4-4---4----|

i couldnt figure out what they were playing in the chorus but ill try to figure it out

(1:51-2:08)
|-----------------------| x4
|-----------------------|
|----------3-----6---6--|
|--6-6-8-3---4-4---4----|
Расскажи друзьям!




Войдите, используя Ваш аккаунт:



Забыли пароль?
Зарегистрироваться

Привет, гитарист!

Пройди супер-курс по гитаре и порази всех своей игрой!

Забрать курс!
ВАМ ПОДАРКИ ОТ ПРОЕКТА
"ГИТАРНАЯ РЕВОЛЮЦИЯ"