Gitaristu.ru
Аккорды Табулатура Начинающим Мастер-класс Софт Видео Форум Блог
Новости Анонсы Гитары Гитаристы Статьи Аватарки Минусовки
Поиск





Популярные подборы




Настройка гитары






Главная > Аккорды > V > Vampire Weekend

Аккорды
Vampire Weekend
-
Oxford Comma bass (табулатура)



Подбор прислал: gitaristu.ru
Song: Oxford Comma
Band: Vampire Weekend
Album: Vampire Weekend
Bass Tab
Tabbed by: Epi. 


Intro

G:--------------------------|
D:--------------------------|
A:--------------------------|  x4
E:-3-----3------------------|

Verse  

G:---------------------------------------------------|
D:----------------------------------2----------------|   x2            
A:----------3---3---3-2---2---2-3-5-----3---3---3----|
E:--3--3--3------------------------------------------|

Pre-Chorus

G:-----------------------------------------------------------------|
D:----------------------5---5---5-4-5-2-4---2----------------------|
A:-3---3---3/5---5---5--------------------5---3-5-2---3---3---3/5--|
E:--------------------------------------------------5--------------|

G:-----------------------------------------------------------------|
D:-----------------------------------------------------------------|
A:--5---5---------------------------------------------------------|
E:---------3---3---3/5-5-5-5-5-5-5-5-------------------------------|

Chorus
                           
G:-----------------------------------------------------------------|
D:-----------------------------------------------------------------|
A:-3-3-3-3-3-3-3-3/5-5-5-5-5-5-5-5---------------------------------|
E:---------------------------------3-3-3-3-3-3-3-3/5-5-5-5-5-5-5-5-|

G:-----------------------------------------------------------------|
D:-----------------------------------------------------------------|
A:-3-3-3-3-3-3-3-3/5-5-5-5-5-5-5-5---------------------------------|
E:---------------------------------3-3-3-3-3-3-3-3/5-5-5-5-5-5-5-5-|

G:-----------------------------------------------------------------|
D:-----------------------------------------------------------------|
A:-3-3-3-3-3-3-3-3/5-5-5-5-5-5-5-5---------------------------------|
E:-----------------------------------------------------------------|

Song Structure

Intro
Verse
Pre-Chorus
Chorus

Intro 
Guitar Solo - same as verse
Pre-Chorus
Chorus Extended
Outro same as Intro

Enjoy :)
Расскажи друзьям!




Войдите, используя Ваш аккаунт:



Забыли пароль?
Зарегистрироваться

Привет, гитарист!

Пройди супер-курс по гитаре и порази всех своей игрой!

Забрать курс!
ВАМ ПОДАРКИ ОТ ПРОЕКТА
"ГИТАРНАЯ РЕВОЛЮЦИЯ"