Gitaristu.ru
Аккорды Табулатура Начинающим Мастер-класс Софт Видео Форум Блог
Новости Анонсы Гитары Гитаристы Статьи Аватарки Минусовки
Поиск





Популярные подборы




Настройка гитары






Главная > Аккорды > V > Van Halen

Аккорды
Van Halen
-
And The Cradle Will Rock bass (табулатура)



Подбор прислал: gitaristu.ru
Standard Tuning

Intro  (0:00)
G-r-----------------------------------------------------|
D-e-----------------------------------------------------|
A-s-----------------------------------------------------|
E-t---------------0-3--5-5-5-5-5-5-5-5-5-5-5-5-5-5-0-3--|

G------------------------------------------------------------|
D---------------------------5--------------------------------|
A------------------------------------------------------------|
E-5-5-5-5-5-5-5-3-3-3-3-3-3---3-0-3-5-5-5-5-5-5-5-5-5-5-5-5--|

G-------------------------------------------|
D----------------------------------5-3------|
A---3----------------------------------5-4--|
E-5---0-3--5-5-5-5-5-5-5-3-3-3-3-3----------|

1st Verse  (0:22)
G---------------------------------------------------------------------|
D---------------------------------------------------------------------|
A-3-3-3-3-3-3-3-3-3-3-3-3-3-----3-1-1--1-1--1--1-1-1-1-1-1-1-1-----1--|
E---------------------------0-3--------------------------------0-1----|

G-------------------------------------------------------|
D-------------------------------------------------------|
A-3-3-3-3-3-3-3-3-3-3-3-------3/5-3--1--1~---1~---------|
E-----------------------0-7-3--------------1-------0-3--|

Chorus  (0:40)
G--------------------------------------------------------------------|
D---------------------------7----------------------------------------|
A--------------------------------------------------------------------|
E-5-5-5-5-5-5-5-5-5-5-5-5-5---0-3-5-5-5-5-5-5-5-3-3-3-3-3-3h5-3-0-3--|

G----------------------------------------------------------------------|
D----------------------------------------------------------------------|
A---------------------------3-------------------------------5/7-5------|
E-5-5-5-5-5-5-5-5-5-5-5-5-5---0-3--5-5-5-5-5-5-5-3--3-3-3-3-------7-3--|

2nd Verse  (0:58, 2:13)
G--------------------------------------------------------------|
D--------------------------------------------------------------|
A-----------------------------8-7-6-6-6-6-6-6-6-6-6-6-6-6-4-3--|
E-1-1-1-1-1-1-1-1-1-1-1-1-1/8----------------------------------|

G--------------------------------------------------------|
D--------------------------------------------------------|
A-----------------------------8-7-6---6~----6~-----------|
E-1-1-1-1-1-1-1-1-1-1-1-1-1/8------------6----------0-3--|

Chorus  (1:16, 2:31)
G--------------------------------------------------------------------|
D---------------------------7----------------------------------------|
A--------------------------------------------------------------------|
E-5-5-5-5-5-5-5-5-5-5-5-5-5---0-3-5-5-5-5-5-5-5-3-3-3-3-3-3h5-3-0-3--|

G----------------------------------------------------------------------|
D----------------------------------------------------------------------|
A---------------------------3-------------------------------5/7-5------|
E-5-5-5-5-5-5-5-5-5-5-5-5-5---0-3--5-5-5-5-5-5-5-3--3-3-3-3-------7-3--|

G------------------|
D------------------|
A-----------0-1-2--|
E-3-3-3-3-3--------|

Guitar Solo  (1:33)
G-----------------------3~~------------------------------------------------r-----------|
D--------------------------------------------------------------------------e-----------|
A-3-----3~------1--1~------------------------------------------------------s-----------|
E------------3-------------------------5-----5~----4~-------3----3~----1~--t------0-3--|

G--------------------------------------------------------------------|
D---------------------------7----------------------------------------|
A--------------------------------------------------------------------|
E-5-5-5-5-5-5-5-5-5-5-5-5-5---0-3-5-5-5-5-5-5-5-3-3-3-3-3-3h5-3-0-3--|

G----------------------------------------------------------------------|
D----------------------------------------------------------------------|
A---------------------------3-------------------------------5/7-5------|
E-5-5-5-5-5-5-5-5-5-5-5-5-5---0-3--5-5-5-5-5-5-5-3--3-3-3-3-------7-3--|

G-------------------------|
D-------------------------|
A-------------------------|
E-3--3--3--0--2--3--0--3--|

Outro  (2:49)
G------------------------------------------------------------------------------------------------|
D-------7--7--------7--7--------7--7--------------------7--7--------7-----------5--5-----5-------|
A------------------------------------------------------------------------------------------------|
E-5--5--------5--5---------5--5--------5--5--0--3--5--5--------5--5-----5--3--3--------3-----0--3|

play outro till fade
Comments are welcome,thanks
Расскажи друзьям!




Войдите, используя Ваш аккаунт:



Забыли пароль?
Зарегистрироваться

Привет, гитарист!

Пройди супер-курс по гитаре и порази всех своей игрой!

Забрать курс!
ВАМ ПОДАРКИ ОТ ПРОЕКТА
"ГИТАРНАЯ РЕВОЛЮЦИЯ"