Gitaristu.ru
Аккорды Табулатура Начинающим Мастер-класс Софт Видео Форум Блог
Новости Анонсы Гитары Гитаристы Статьи Аватарки Минусовки
Поиск





Популярные подборы




Настройка гитары






Главная > Аккорды > V > Van Halen

Аккорды
Van Halen
-
Dreams (табулатура)



Подбор прислал: gitaristu.ru


-------------------------------------------------------------------------------
			     Dreams - Van Halen
-------------------------------------------------------------------------------
Tabbed by: Daniel Sallows Rigby

Tuning: Standard (EADGBE)

Accoustic + Keyboard Introduction

e|-------------------------0--------------------1-1/3-0---0---------111-11-33|
B|0-1-1-3-3-1-1----0-1-1-3---1p0h1p0----0-1-3-3----------3---1-3-3--000-33-55|
G|-0--------------0-------------------0--------------------------------------|
D|---------------------------------------------------------------------------|
A|---------------------------------------------------------------------------|
E|---------------------------------------------------------------------------|
Repeat This Section 1 time. 


This intro is fairly straight forward, nothing much to be worry about except keep 
the hammer ons and pull offs

smooth and not to fast otherwise it will throw the sound. The double stops should 
be played with a small bit of palm muting

Next the song breaks into the chorus with no vocals and a small amount of guitar. 
There are 2 guitars here but i have transcribed it for one (Rhythym amp; Lead) NOTE: 
You will need a whammy bar for the remainder of this song.

The chords here are best played with plam muting and are [C5, G5, A5, F5, Open bass 
strings] (this sounds ok when played with cd, you can always play around with it.) 
The other guitar you can hear is a simple lick which i play like this

e|---------------------------------------------------------------------------|
B|---------------------------------------------------------------------------|
G|----12-12-12(Doop The Bar Several Times------------------------------------| 
D|---------------------------------------------------------------------------|
A|---------------------------------------------------------------------------|
E|---------------------------------------------------------------------------|
This Repeats Again


Use your 1st, 3rd and 4th fingers for the powerchords, Doop means to push your 
whammy bar down a small amount in the same 
direction as if you were going to execute a dive bomb.

The verse is a simple one shape affair (or so i've found) and it goes like this. Seen 
as though the guitar isn't dominant here, use a fair amount of palm muting.
e|---------------------------------------------------------------------------|
B|---------------------------------------------------------------------------|
G|---77777---------77777***--------------------------------------------------| 
D|---77777---------77777***--------------------------------------------------|
A|---55555-555555--55555***--------------------------------------------------|
E|---------------------------------------------------------------------------|
***This Repeats Through Out

After this song returns to the chorus, use a pick scrape just before the chorus, use 
chorus chords as above but dont play the simple doop lick. The song then returns to 
the verse. There is a rhytym fill in here that goes like this...

e|---------------------------------------------------------------------------|
B|--------prebend------------------------------------------------------------|
G|----13--15------15---------------------------------------------------------|
D|---------------------------------------------------------------------------|
A|---------------------------------------------------------------------------|
E|--------------------0-(dive bomb-------------------------------------------|


Back to the chorus, same as before, then its back to the intro, play the intro, then 
the chorus chords again.. then its solo time.

e|---------------------------------------------------------------------------|
B|-15-15-15-15-15-15-15-15-15-15-15-15 (use bar for vibrato------------------|
G|-14-14-14-14-14-14-14-14-14-14-14------------------------------------------| 
D|---------------------------------------------------------------------------| 
A|---------------------------------------------------------------------------|
E|---------------------------------------------------------------------------|
Repeat this but on the second time play the 
21st fret high e string with bar vibrato


e|---------------------------------------------------------------------------|
B|---------------------------------------------------------------------------|
G|---------------------------------------------------------------------------|
D|---------------------------------------------------------------------------|
A|-inverted doop-------------------------------------------------------------|
E|-2/92/9/2/92/92---------------------------------------------------------|

Inverted doop = like before but in opposite direction (to raise pitch slightly)

e|-22-18-21-19-18 (bar for vibrato)--15-15-13-12----------------------------|
B|---------------------------------------------------------------------------|
G|---------------------------------------------------------------------------|
D|---------------------------------------------------------------------------|
A|---------------------------------------------------------------------------|
E|---------------------------------------------------------------------------|

Keep your 1st finger on the 18th fret and use your 3rd finger for the other frets

e|--h5h8h13/p8p5 (x4)--h5h8h15/p8p5 (x3) h5h8h12/p8p5 (x4)-------------------|
B|---------------------------------------------------------------------------|
G|---------------------------------------------------------------------------|
D|---------------------------------------------------------------------------|
A|---------------------------------------------------------------------------|
E|---------------------------------------------------------------------------|
This section is the hardest part of the solo, the repeat figures may not be correct, 
listen to the original for exact timing on this one. Use finger tapping for this section. 
(left hand: 1st finger -5th fret, 3rd finger 8th fret-- Right Hand 1st finger 13, 15, 12 
and the slides) take this section very slowly at first and then build up to speed over time.


e|---------------------------------------------------------------------------|
B|---------------------------------------------------------------------------|
G|---------------------------------------------------------------------------|
D|---------------------------------------------------------------------------|
A|-inverted doop-------------------------------------------------------------|
E|-2/92/9/2/92/92---------------------------------------------------------|

This is the same as before, the next section i'm not sure about, i think it goes

e|-5-8-15 15~~~~-------------------------------------------------------------|
B|---------------------------------------------------------------------------|
G|---------------------------------------------------------------------------|
D|---------------------------------------------------------------------------|
A|---------------------------------------------------------------------------|
E|---------------------------------------------------------------------------|

Chorus repeat, then intro repeat, the second solo is as follows:

e|----------------10-10----------h5h8h13p8p5 (x4)------h5h8h158p8p5 (x3)-h5h8h12p8p5 (x4)|
B|/13 13---/13-13-------/13-13-----------------------------------------------|
G|---------------------------------------------------------------------------|
D|---------------------------------------------------------------------------|
A|---------------------------------------------------------------------------|
E|---------------------------------------------------------------------------|

e|--9/-17-17-17-17-17 20~~~--------------------------------------------------|
B|---------------------------------------------------------------------------|
G|---------------------------------------------------------------------------|
D|---------------------------------------------------------------------------|
A|---------------------------------------------------------------------------|
E|---------------------------------------------------------------------------|

This solo is like before but slightly easier because you havent got the slides.... 
Repeat chorus chords and you are done. slowing towards the end... Congratulations   



| /  slide up
|   slide down
| h  hammer-on
| p  pull-off
| ~  vibrato
| +  harmonic
| x  Mute note
| Doop ~ small decrease in pitch with whammy bar
| Inverted Doop ~ Small increase in pitch w/ whammy bar...
===============================================================================



Расскажи друзьям!




Войдите, используя Ваш аккаунт:



Забыли пароль?
Зарегистрироваться

Привет, гитарист!

Пройди супер-курс по гитаре и порази всех своей игрой!

Забрать курс!
ВАМ ПОДАРКИ ОТ ПРОЕКТА
"ГИТАРНАЯ РЕВОЛЮЦИЯ"