Gitaristu.ru
Аккорды Табулатура Начинающим Мастер-класс Софт Видео Форум Блог
Новости Анонсы Гитары Гитаристы Статьи Аватарки Минусовки
Поиск





Популярные подборы




Настройка гитары






Главная > Аккорды > V > Van Halen

Аккорды
Van Halen
-
Everybody wants some (табулатура)



Подбор прислал: gitaristu.ru


Words and Music By:

Eddie Van-Halen, Alex Van-Halen
David Lee Roth, Michael Anthony



Tuning:1/2 step down

*w/jungle vocals ad  lib
w/fill1 (Drums)

                      FDBK. 8va
e|-----------------------------------------------
B|-----------------------------------------------
G|-----------------------------------------------
D|-----------------------------------------------
A|-----------------------------------------------
E|-----0-0-0-0-0-0-0-0-0-0-0-0-0-0-0-0-0-0-0-0-0-
*Next 13 bars/*Tremelo Picking

                     FDBK. 8va
e|-----------------------------------------------
B|-----------------------------------------------
G|-----------------------------------------------
D|-----------------------------------------------
A|-----------------------------------------------
E|0-0-0-0-0-0-0-0-0-0-0-0-0-0-0-0-0-0-0-1-1-1-1-1


                     FDBK. 8va
e|-----------------------------------------------
B|-----------------------------------------------
G|-----------------------------------------------
D|-----------------------------------------------
A|-----------------------------------------------
E|1-1-1-1-1-1-1-1-1-1-1-1-1-1-1-1-1-1-1-1-1-1-1-1


                    FDBK. 8va
e|-----------------------------------------------
B|-----------------------------------------------
G|-----------------------------------------------
D|-----------------------------------------------
A|-----------------------------------------------
E|1-1-1-1-1-1-1-0-0-0-0-0-0-0-0-0-0-0-0-0-0-0----


                    FDBK. 8va
e|-----------------------------------------------
B|-----------------------------------------------
G|-----------------------------------------------
D|-----------------------------------------------
A|-----------------------------------------------
E|-----0-0-0-0-0-0-0-0-0-0-0-0-0-0-0--1-1-1-1-1-1



                    FDBK. 8va
e|-----------------------------------------------
B|-----------------------------------------------
G|-----------------------------------------------
D|-----------------------------------------------
A|-----------------------------------------------
E|1-1-1-1-1-1-1-1-1-1-1-1-1-1-1-1-1-1-1-1-1-1-1-1


                   FDBK. 8va
e|-----------------------------------------------
B|-----------------------------------------------
G|-----------------------------------------------
D|-----------------------------------------------
A|-----------------------------------------------
E|1-1-1-1-1-1-1-1-1-1-1-1-1-1-1-1-1-1-1-1-1-1-1-1


                  FDBK. 8va
e|-----------------------------------------------
B|-----------------------------------------------
G|-----------------------------------------------
D|-----------------------------------------------
A|-----------------------------------------------
E|-1-1-1-1-1-1-1-1-1-1-1-1-1-0-0-0-0-0-0-0-0-0-0-


                 FDBK. 8va
e|-----------------------------------------------
B|-----------------------------------------------
G|-----------------------------------------------
D|-----------------------------------------------
A|-----------------------------------------------
E|-0-0-0-0-0-0-0-0-0-0-0-0-0-0-0-0-0-0-0-0-0-0-0-


                FDBK. 8va
e|-----------------------------------------------
B|-----------------------------------------------
G|-----------------------------------------------
D|-----------------------------------------------
A|-----------------------------------------------
E|-0-0-0-0-0-0-0-0-0-0-0-0-0-0-0-0-0-------------



e|-----------------------------------------------
B|-3-3-(3)---------------------------------------
G|-2-2-(2)---------------------------------------
D|-0-0-(0)---------------------------------------
A|-0-0-(0)---------------------------------------
E|-----------------------------------------------

Fill 1

trem bar 6 slack

 
  
------
-------
-------
-------
-------
--0----
*Depress bar before string note
-----------------------------------------------
Fill 2                    trem bar
vol. off _______          
                           
                fdbk.       3
--------------|-------|---------|--------------
--------------|-------|---------|--------------
-----(2)------|--(2)--|-(2)-----|-(2)----------
--------------|-------|---------|--------------
--------------|-------|---------|--------------
--------------|-------|---------|--------------
                *fdbk. pitch c
                *Heavy Distortion
-----------------------------------------------

Fill 3

trem bar     rake trem
*  /        bar springs------|
  /
 slack                 slack
--------------|--------------------------------
--------------|--------------------------------
--------------|--------------------------------
------X----X--|-(X)-X--------------------------
------X----X--|-(X)-X----x---------------------
--0---X----x--|-(X)-X--------------------------
                     xLet slack string hit pickup
*Depress bar before stricking note
-----------------------------------------------
Fill 4

pick scrapes-------------|

-----------------------------------------------
-----------------------------------------------
----X-X-X--------------------------------------
----X-X-X-------------------X------------------
----X-X-X---X-X-X--X-X--X----X-X--X--X--X------
------------X-X-X------------------------------
                              *Push string into
                               into pickup

-----------------------------------------------

Fill 5
     raise the tremolo bar slowly
-----------------------------------------------
-----------------------------------------------
----2------------------------------------------
---x-------------------------------------------
--x--------------------------------------------
-----------------------------------------------
A.H Pitch C#

-----------------------------------------------
Fill 6

Pick Scrapes
-----------------------------------------------
-----------------------------------------------
-----------------------------------------------
----X-X/-X/X--/X--/X--/X-X---------------------
----------v-----------------X-X----------------
-----------------------------------------------

-----------------------------------------------



e|-----3----------------
B|-3---3----------------
G|-2--------------------
D|-0----------2-2-------
A|------------2-2-------
E|------------0-0-------
*Each fill is played after this riff



e|----------------------3-3-3--------------------
B|-3--------------------3-3-3--------------------
G|-2--------------------2-2-2--------------------
D|-0----2-2-------------0-0-0---2-2-2--2---------
A|-0----2-2-------------0-0-0---0-0-0--0---------
E|------0-0------0-------------------------------
                 Dive bomb

                   Pm
e|-------------3-3-3-3-3-3-3-3-3-3-3-2-2-2-2-2-2-
B|----3-3-3-3--3-3-3-3-3-3-3-3-3-3-3-3-3-3-3-3-3-
G|----2-2-2-2--2-2-2-2-2-2-2-2-2-2-2-2-2-2-2-2-2-
D|-2--0-0-0-0--0-0-0-0-0-0-0-0-0-0-0-0-0-0-0-0-0-
A|-0---------------------------------------------
E|-----------------------------------------------



e|-----------------------------------------------
B|-----------------------------------------------
G|------------------2--(2)----3------------------
D|------------------2--(2)----2------------------
A|-4-2--------2-----0--(0)----0---4-2-2-----2----
E|------0-0-0-0-0-0--------3b---------0-0-0-0----
*b 1/2 step and release


e|-----------------------------------------------
B|-------------3----------------------------3-3--
G|----2-(2)----2------------------2-(2)-----2-2--
D|----2-(2)----0------------------2-(2)-----0-0--
A|----0-(0)-------4-2-2-----2-----0-(0)-----0----
E|0-0-------3b--------0-0-0-0-0-0--------3b------


          pm                      trem bar
e|-----------------------------------------------
B|------------------3-3--------------------------
G|--------------2---2-2--------------------------
D|--------------2---0-0--------------------------
A|4-2--2-----2--0---0-0--------------------------
E|-----0-0-0-0-----------/9-0-----0--------------
                       sl.  p.o   Dive Bomb
*p.0=Pull off

    slack    h  Move Trem bar up/down/up/down/up
e|-----------------------------------------------
B|----------8FB----------------------------------
G|----------7FB----------------------------------
D|-----------------------------------------------
A|-----------------------------------------------
E|-(0)-------------------------------------------


                                 A.H   grad. bend
e|-----------------------------------------------
B|--------------------------------0--------------
G|7-9--(9)-(9)-------------------6--(6)FB-------
D|7-9--(9)-(9)----------------------------------
A|5-7--(7)-(7)-----------------X----------------
E|-------------------0-0-0-0-0-------------------
              sl.    *rub r.h. back
                      amp; forth across stg.


                     Chorus


    trem. bar back in place
e|-----------------------------------------------
B|-(0)-------------------------------------------
G|-(6)----------------------------------2-(2)----
D|--------------------------------------2-(2)----
A|----------------------2-(2)---2-------0-(0)----
E|----------------3-4---0-(0)-0-0-0-0-0----------


                       pm
e|-----------------------------------------------
B|-------3------------------------------------3--
G|-------2------------------------------------2--
D|-------0------------------------------------0--
A|-------------4-2---2-----2------0-(0)----------
E|-3b1/2-------------0-0-0-0--0-0------3b1/2-----



e|-----------------------------------------------
B|-------------------------------3---------------
G|-------------------------------2---------------
D|------------------2---(2)------0---------------
A|-4-2--2-----2-----0---(0)------0---------------
E|------0-0-0-0-0-0--------3b1/2-----------------



e|-----------------------------------------------
B|-----------------------------------------------
G|-------------------2-(2)------3-3--3-----------
D|-------------------2-(2)------2-2--2-----------
A|-4-2--2-----2------0-(0)------0-0--0-----------
E|------0-0-0-0--0---------3b1/2-------0---------
                                       Dive bomb

        trem bar up/down/up/down/up/down
e|-----------------------------------------------
B|------8B3/4------------------------------------
G|-(7h)-7B3/4------------------------------------
D|------7B3/4------------------------------------
A|-----------------------------------------------
E|-----------------------------------------------

                                1
                  A.H up1/2down v    up 1/2
                                     down slowly
e|-----------------------------------------------
B|-----------------------------------------^-----
G|------7-9-(9)---2b----------(2)--(2)b-(2)0----
D|-(0)--7-9-(9)---------------------------------
A|------5-7-(7)---------------------------------
E|-----------------------------------------------
                                       dive bomb

   Chorus
e|-----------------------------------------------
B|-----------------------------3-----------------
G|-------------2--(2)----------2-----------------
D|-------------2--(2)----------0-----------------
A|-2-----2-----0--(0)----------------4-2--2-----2
E|-0---0-0-0-0---------3b1/2--------------0--0--0



e|-----------------------------------------------
B|---------------------3--3----------------------
G|-------2--(2)--------2--2--------------------2-
D|-------2--(2)--------0--0--------------------2-
A|--2-2--0--(0)--------------4-2-2----2---2-2--0-
E|0-0-0---------3b1/2------------0--0-0-0-0-0----


                           pm           pm
e|-----------------------------------------------
B|-----------3--3--------------------------------
G|-(2)-------2--2---------------------2----------
D|-(2)-------0--0---------------------0----------
A|-(0)-------------4--2--2-----2------X----------
E|-----3b1/2-------------0-0-0-0-0-0--2-2-2------


    ~~~~~~~~~~~~   pm      pm    pm
e|-----------------------------------------------
B|-----------------------0-----0-----------------
G|-2---------------------0-----0------2----------
D|-0---------------------0-----0------2----------
A|-X---------------------X-----X----------0------
E|-2--------------2--2---3-3-3-3-3-3----0--------


                    pm     pm       ~~~~~~~~~~
e|-----------------------------------------------
B|-----------------------------------------------
G|----------------------------2------2-----------
D|-2-----2-2-2-2--------------0------0-----------
A|-0-----0-0-0-0--2-----2-----X------X-----------
E|----------------0-0-0-0-0-0-2-2-2--2-----------


   pm
e|-----------------------------------------------
B|-----------------------------------------------
G|-----------------------------------------------
D|-----0-0-----------2-2-2-----------------------
A|-----X-X-----------0-0-0-2-2-2-3-3-4-4---------
E|2-2--3-3--3--4-4-4-----------------------------


Guitar Solo: 2:36 into the song
gtr.2
D5                                Semi Harmonic
   1/2 1/2   1 1    1 1      1 1  
    v   v    v v    v v      v v   1 1/2
e|-----------------------------------------------
B|-----------------------------------------------
G|-14-------13-----11-(11)--9-----7--------------
D|-----------------------------------------------
A|-----------------------------------------------
E|-----------------------------------------------

  1/2 1/2   1 1    1
   v   v    v v    v
e|-----------------------------------------------
B|-----------------------------------------------
G|14-------13-----11-----------------------------
D|-----------------------------------------------
A|-----------------------------------------------
E|-----------------------------------------------


gtr.1      pm       pm          pm
e|-----------------------------------------------
B|-----------------------------------------------
G|-7-----7-----7-7------7---7-7-----7------------
D|-7-----7-----7-7------7---7-7-----7-----7------
A|-5--5--5-5-5-5-5--5-5-5---5-5-5-5-5-5-5-5------
E|-------------------------------------------5---

     1   1 1 1 1 1   1/2 1/2  1 1    1 1
     v   v v v v v    v   v   v v    v v
e|-----------------------------------------------
B|-----------------------------------------------
G|-(11)--9------(9)/--14-----13----11----(11)----
D|-----------------------------------------------
A|-----------------------------------------------
E|-----------------------------------------------

     1 1  1/2 1/2
     v v   v   v
e|-----------------------------------------------
B|-----------------------------------------------
G|9-------7---(7)/-------------------------------
D|-----------------------------------------------
A|-----------------------------------------------
E|-----------------------------------------------


 gtr.1                   pm     pm     pm
e|-----------------------------------------------
B|-----------------------------------------------
G|--9--9-9-9-9-9--7-----7------7------7----------
D|--9--9-9-9-9-9--7-7-7-7--7---7------7---------
A|--7--7-7-7-7-7--5-5-5-5--5-5-5--5-5-5----------
E|0-0--0-0-0-0-0----------------------5----------



e|--------
B|--------
G|7-7-7-7-
D|7-7-7-7-
A|5-5-5-5-
E|--------

    1 1    1 1
    v v    v v      ^
e|-----------------------------^--------^--------
B|-------12----12--15--12----15-12----12-15-15fb-
G|-14---------------------14-------14------------
D|-----------------------------------------------
A|-----------------------------------------------
E|-----------------------------------------------


     ~~~~~~~~~~~  trem.picking
e|-----------------17---16---14------------------
B|15-15fb----------------------------------------
G|-----------------14---13---11------------------
D|-----------------------------------------------
A|-----------------------------------------------
E|-----------------------------------------------


gtr.1
e|-----------------------------------------------
B|-----------------------------------------------
G|-7-----7-7---7-7----9-9-9-9-9-9-9-------------
D|-7-----7-7---7-7----9-9-9-9-9-9-9-------------
A|-5--X--5-5-X-5-5-X--7-7-7-7-7-7-7-------------
E|----X------X-----X--0-0-0-0-0-0-0-------------


  pm---------------------|
e|--------------------------
B|--------------------------
G|7-----7-----7------7------
D|7-7-7-7-7-7-7-7-7--7------
A|5-5-5-5-5-5-5-5-5--5------
E|--------------------------

   trem picking-----------|          pm
e|(14)-----------12---10-------17---------16-----
B|-----------------------------------------------
G|(11)------------9----7----7/-14--14--14-13-----
D|-----------------------------------------------
A|-----------------------------------------------
E|-----------------------------------------------


   pm         pm
e|------14----------12----12-(12)----------------
B|-----------------------------------------------
G|13-13-11-11-11-11--9--9--9--(9)-X-7/----------
D|-----------------------------------------------
A|-----------------------------------------------
E|-----------------------------------------------


     pm              pm
e|-----------------------------------------------
B|-----------------------------------------------
G|-7-----7--7-7--7-----7---7-7-7-7-9-9-9-9-9-9-9-
D|-7-----7--7-7--7-7-7-5-7-7-7-7-7-9-9-9-9-9-9-9-
A|-5-5-5-5--5-5--5-5-5-5-5-5-5-5-5-7-7-7-7-7-7-7-
E|----------5-5----------------------------------


       pm      pm       pm        pm
e|17-------16-------14-------12------------------
B|----------------------------9------------------
G|14-14-14-13-13-13-11-11-11----9-9-7-7-7/-------
D|-----------------------------------------------
A|-----------------------------------------------
E|-----------------------------------------------


gtr. 11 out
e|21b-12b-12b-12b-12fb~~~~~~~~~------------------
B|-----------------------------------------------
G|-----------------------------------------------
D|-----------------------------------------------
A|-----------------------------------------------
E|-----------------------------------------------



e|-----------------------------------------------
B|----------------------------------------3------
G|-9-9-9-9-9-9-9------------2-(2)-------2------
D|-9-9-9-9-9-9-9------------2-(2)-------0------
A|-7-7-7-7-7-7-7----2-------0-(0)--------------
E|------------------0-0-0-0-0------3b1/2---------


        pm                         pm
e|-----------------------------------------------
B|------------------------3------------------2---
G|---------------2--------2------------------2---
D|---------------2--------0------------------0---
A|4-2-2-----2----0-----------4-2-2-----2---------
E|----0-0-0-0-0-0---3b1/2--------0-0-0-0-0-0-----


                   pm
e|-----------------------------------------------
B|------3----------------------------3-----------
G|------2--------------------2-------2-----------
D|------0--------------------2-------0-----------
A|----------4-2--2-----2-----0-------0-----------
E|3b1/2----------0-0-0-0-0-0---3b1/2-------------



e|-----------------------------------------------
B|-----------------------------------------------
G|-----------------------------------------------
D|-----------------------------------------------
A|-----------------------------------------------
E|-/10-0-(0)-------------------------------------
          Dive bomb


*slack
____________________________


e|---------(0)-----0----(0)-------(0)------------
B|-----------------------------------------------
G|-----------------------------------------------
D|-----------------------------------------------
A|------------------------------------------0----
E|--(0)----------------------0---------0-------0-
*With trem bar depressed, low strings are lack and 1st string
is 2 steps below normal pitch Sound all notes (next 3 bars) with
L. Hand



*slack
______________________


e|-----------------------------------------------
B|-----------------------------------------------
G|-----------------------------------------------
D|-----------------------------------------------
A|--0--------------------------------------------
E|--0--------------------------------------------
*depress bar before rack strings with L. Hand



spoken: Ooh, where'd you get those shoes oh yeah 

_________________________________________________

spoken: I like
                           Let ring
e|-----------------------------------3-----------
B|-----------------------------------------------
G|--3-3--(3)-------------(3)---------------------
D|--2-2--(2)-------------(2)---------------------
A|--0-0--(0)-------------(0)------------2--2-----
E|--0-0--(0)-------------(0)------------0--0-----

spoken: I like the way those lines run up the back of those stockings

e|----------------------------3~-3----(3)--------
B|----------------------------3~-3----(3)--------
G|----------------------------2~-2----(2)--------
D|----------------------------0~-0----(0)--------
A|-----------------------------------------------
E|-----------------------------------------------

Dive trem bar 1 1/2 steps

e|-----------------------------------------------
B|-----------------------------------------------
G|-(2)-------------------------------------------
D|-(0)-------------------------------------------
A|-----------------------------------------------
E|--------------0-0-----------------------------

spoken; I've always like those kind of high heels too. you know
      trem bar 6
    ------------/
e|------------------------3-3--------------------
B|------------------------3-3--------------------
G|------------------------2-2--------------------
D|------------------------0-0--------------------
A|------------------------0-0--------------------
E|--0--------------------------------------------


spoken: No, no, no, no don't take 'em off, don't take..

                     Dive trem bar 1 1/2 step
e|----(3)-----------(3)--------------------------
B|----(3)-----------(3)--------------------------
G|----(2)-----------(2)--------------------------
D|----(0)-----------(0)--------------2-2---------
A|----(0)-----------(0)--------------2-2---------
E|-----------------------------------0-0---------


spoken: Leave'em on, leave'em on.

 Dive trem bar 4 1/2 steps
e|-----------------------------------------------
B|-----------------------------------------------
G|-----------------------------------------------
D|-----------------------------------------------
A|-----------------------------------------------
E|-(0)-------------------------------------------



e|-3--3--(3)--3-3----(3)-------------------------
B|-3--3--(3)--3-3----(3)-------------------------
G|-2--2--(2)---------(2)-------------------------
D|-0--0--(0)---------(0)------2-2----------------
A|-0--0--(0)---------(0)------2-2----------------
E|----------------------------0-0----------------


spoken: Ya, thats it a litte more to the right
e|-----------------------------------------------
B|---------------------------3-3-(3)-----3-------
G|---------------------------2-2-(2)-----2-------
D|---------------------------0-0-(0)-----0-------
A|---------------------------0-0-(0)-------------
E|-h12---5/153/15(15)2/-----------------------



e|-------------------3-3-3-3-3-3-2-2-------------
B|-(3)---------------3-3-3-3-3-3-3-3-------------
G|-(2)-------2-2-2-2-2-2-2-2-2-2-2-2-------------
D|-(2)-0--0--0-0-0-0-0-0-0-0-0-0-0-0-------------
A|-(0)---------------------------------4--2------
E|-----------------------------------------------


     pm                                 pm
e|-----------------------------------------------
B|-------------------------3--3------------------
G|-------------------------2--2---------------2--
D|-------------2-(2)-------0--0---------------2--
A|-2-----2-----0-(0)------------4--2--2-----2-0--
E|-0-0-0-0-0-0-------3b1/2------------0-0-0-0----


                               pm
e|-----------------------------------------------
B|---------------3-------------------------------
G|---------------2-----------------------2-------
D|-(2)-----------0---0-------------------2-------
A|-(2)-----------------4--2--2-----2-----0-------
E|-(0)-3b1/2--3--------------0-0-0-0-0-0---------


                          pm    pm
e|-----------------------------------------------
B|-------------3-3-------------------------------
G|-(2)---------2-2--------------------2-(2)------
D|-(2)--------------------------------2-(2)------
A|-(0)-------------4-2--2-----2-----2-0-(0)------
E|-----3b1/2------------0-0-0-0-0-0-0-------3b1/2


             pm    pm
e|-----------------------------------------------
B|-3----------------------------------3----------
G|-2-------------------2---(2)--------2----------
D|-0-------------------2---(2)--------0----------
A|----4-2--2-----2-----0---(0)-------------------
E|---------0-0-0-0-0-0---------3b1/2-------------


        pm    pm
e|-----------------------------------------------
B|-----------------------------3-3--3----------
G|----------------2--(2)-------2-2--2----------
D|----------------2--(2)-------0-0--0----------
A|4-2-2-----2-----0--(0)-------0-0--0----------
E|----0-0-0-0-0-0--------3b1/2-------------------



e|-----------------------------------------------
B|-9---9-9-9-9-/14-(14)-14-----20-20-20-9-------
G|-9---9-9-9-9-/14-(14)-14-----19-19-19-9-------
D|-9---9-9-9-9-/14-(14)-14-----19-19-19-9-------
A|-7-7-7-7-7-7-/12-(12)-----16-17-17-17-7-------
E|-----------------------------------------------



e|-----------------------------------------------
B|----9------9/14-(14)-14-/19-19-19-19----------
G|----9------9/14-(14)-14-/19-19-19-19----------
D|----9------9/14-(14)-14-/19-19-19-19----------
A|--7-7--7-----------------17-17-17-17----------
E|7----------------------------------------------



e|-----------------------------------------------
B|9---9-9-9-9/14-(14)-14-14-19-19-20-19---------
G|9---9-9-9-9/14-(14)-14-14-19-19-19-19---------
D|9---9-9-9-9/14-(14)-14-14-19-19-19-19---------
A|7-7-7-7-7-7/12-(12)-12-12-17-17-17-17---------
E|-----------------------------------------------


                                   pm    pm
e|-----------------------------------------------
B|------9-9-9-9----------------------------------
G|-9----9-9-9-9----------------------------------
D|-9----9-9-9-9----------------------------------
A|-7-7--7-7-7-7-0-(0)-0-0/5-4-2--2-----2---------
E|-------------------------------0-0-0-0-0-0-----

                               pm     pm
e|-----------------------------------------------
B|-----------------------------------------------
G|-2-----2--0-----0------2-2---------------2---2-
D|-0-----0--0-----0------2-2---------------0---0-
A|-X-----X--X-----X------0-0--2---2-2------X---X-
E|-2-2-2-2--3-3-3-3-3--3------0-0-0-0-0-0--2-2-2-



e|-----------------------------------------------
B|--------------2-----2-2-2--2-2-----------------
G|2-0---0-0-----2-----2-2-2--2-2-----------------
D|0-0---0-0-----2-----2-2-2--2-2-----------------
A|X-X---X-X-----0-----0-0-0--0-------------------
E|2-3-3-3-3--3-----------------------------------


Free time        Fdbk.
spoken:Look, I'll pay you for them what the F****
e|-----------------------------------------------
B|-(2)-------------------------------2----------
G|-(2)-------------------------------2-----------
D|-(2)-------------------------------2-----------
A|-(0)---(0)----(0)-----------------(0)----------
E|-----------------------------------------------
          trem bar slow dive

Continue dive and fade out

This song may take a long time but if you can master it you are a monster   

Tabbed by Cameron Fuller

:-) Enjoy



| /  slide up
|   slide down
| h  hammer-on
| p  pull-off
| ~  vibrato
|   harmonic
| x  Mute note
===============================================================================


Расскажи друзьям!




Войдите, используя Ваш аккаунт:



Забыли пароль?
Зарегистрироваться

Привет, гитарист!

Пройди супер-курс по гитаре и порази всех своей игрой!

Забрать курс!
ВАМ ПОДАРКИ ОТ ПРОЕКТА
"ГИТАРНАЯ РЕВОЛЮЦИЯ"