Gitaristu.ru
Аккорды Табулатура Начинающим Мастер-класс Софт Видео Форум Блог
Новости Анонсы Гитары Гитаристы Статьи Аватарки Минусовки
Поиск





Популярные подборы




Настройка гитары






Главная > Аккорды > V > Van Halen

Аккорды
Van Halen
-
Ice Cream Man bass (табулатура)



Подбор прислал: gitaristu.ru
--------------------------------------------------------------------------------------------------
ICE CREAM MAN - Van Halen
--------------------------------------------------------------------------------------------------

Tabbed By: van_halen_fan

Tuning: Half-Step Down (from low to high: Eb,Ab,Db,Gb)

*Bass enters around 1:12

   Verse 4

    Q  Q  H      Q  E E H      Q  Q  Q   Q    Q  Q  Q  Q    Q  E E E E E E   Q  E E E E E E
Gb|----r--r----|----r---r----|----r------r--|-------------|----------------|----------------|
Db|----e--e----|----e---e----|----e------e--|-------------|------------4---|----------------|
Ab|----s--s----|----s---s----|----s------s--|-------------|----4-4-7-7---7-|----4-4-5-5-6-6-|
Eb|-0--t--t----|-0--t-0-t----|-0--t-/12\-t--|-0--2--3--4--|-5--------------|-5--------------|



    E E E E E E E E   E E E E E E E E   E E E E E E E E + Q  Q  E E E E + E E E E E E E E
Gb|-----------------|-----------------|-----------------|---------------|-------------------|
Db|-----------------|-----------------|-----------9-8-7-|(7)------------|-------------------|
Ab|-7-7-4-4---------|-----------------|-----6---7-------|----4--5-5-6-7-|(7)7---------------|
Eb|---------7-7-4-4-|-0-0-4-4-5-5-6-6-|-7-7---7---------|---------------|-----4-4-5-5-6-6---|

                       Chorus

    E E E Q  Q.         E E E E E E E E + E E E E E E E E + E E Q  Q  E E + E E E E E E E E
Gb|-------------------|-----------------|-----------------|---------------|-----------------|
Db|-------------------|-----------------|-----------------|---------------|-----4---5---6---|
Ab|-------------------|-----------------|-----4-5-7-4-4-7-|(7)7-4-----4-7-|(7)7---7---7---7-|
Eb|-7-5-6-7--2--------|-0-0-2-0-3-0-4-5-|(5)5-------------|--------7------|-----------------|



    E E E E E E E E   E E E E E E E E   E E E E Q  E E   E E E E E E E E   E E E E E E E E +
Gb|-----------------|-----------------|----------------|-----------------|------------------|
Db|-------------4---|-----------------|----------------|-----6-6-7-7-8-8-|-9-9-6-6----------|
Ab|-----4-4-7-7-----|-----4-4-5-5-6-6-|-7-7-4-4----4-4-|-7-7-------------|---------9-9-6----|
Eb|-5-5-----------5-|-5-5-------------|---------7------|-----------------|---------------5--|

                                                    Guitar Solo

    E E E E E E E E   E E Q  Q  Q    E E E Q. Q       Q  E E H     W        Q  E E H     W
Gb|-----------------|--------------|--------------||-----r---r---|-r-----||----r---r---|-r--|
Db|-----------------|--------------|--------------||*----e---e---|-e----*||----e---e---|-e--|
Ab|-----4-4-5-5-6-6-|-7-7----------|--------------||*----s---s---|-s----*||----s---s---|-s--|
Eb|(5)5-------------|-----4--5--6--|-7-5-6-7--7\--||--0--t-0-t---|-t-----||-0--t-0-t---|-t--|



    Q  E E E E Q        Q  Q  Q  Q      E E E E E E E E   E E E E E E E E   E E E E E E E E +
Gb|----r---r----------|---------------|-----------------|-----------------|-----------------|
Db|----e---e----------|---------------|-------------4---|-----------------|-----------------|
Ab|----s---s----------|---------------|-----4-4-7-7---7-|-----4-4-5-5-6-6-|-7-7-4-4---------|
Eb|-0--t-0-t-4/12\----|-0--2--3--4----|-5-5-------------|-5-5-------------|---------7-4-2-0-|



    E E Q  E E E E   Q  E E E E E E + E E E E E E E E   E E E E E E E E   E E E Q. Q
Gb|----------------|----------------|-----------------|-----------------|-------------------|
Db|----------------|----------9-8-7-|(7)7-------------|-----------------|-------------------|
Ab|----------------|----6-6-9-------|-----4-4-5-5-6-6-|-7-7-------------|-------------------|
Eb|(0)0-4--5-5-6-6-|-7--------------|-----------------|-----4-4-5-5-6-6-|-7-5-6-7-/12\------|



    E E E E E E E E   E E E E E E E E   E E E E Q  Q      E E E E Q^Q^Q     E E E E E E E E
Gb|-----------------|-----------------|-----------------|-----------------|-----------------|
Db|-----------------|-----------------|-----------------|-----------------|-----------------|
Ab|-----------------|-----------------|-----------------|-----------------|-----------------|
Eb|-0-0-2-2-3-3-4-4-|-5-5-3-3-2-2-3-3-|-0-0-2-2-3--4----|-0-0-2-2-2-3-2---|-5-5-3-3-2-2-3-3-|



    E E E E E E E E   E E E E E E E E + E E E E E E E E   E E E E E E E E + E E E E E E E E
Gb|-----------------|-----------------|-----------------|-----------------|-----------------|
Db|-----------------|-----------------|-----------------|-----------------|-----------------|
Ab|-----------------|-----------------|-----------------|-----6-6-9-9-----|-----4-4-5-5-6-6-|
Eb|-5-5-3-3-2-2-3-3-|-0-0-2-2-3-3-4-0-|(0)0-4-4-5-5-6-6-|-7-7---------7-5-|(5)5-------------|

                                        Chorus

    E E E E E E E E   E E E E+H          Q  E E E E E E + E E E E E E E E   E E E E E E E E +
Gb|-----------------|------------------|----------------|-----------------|-----------------|
Db|-----6-6-7-7-8-8-|-9----------------|----------------|-----------------|-----------------|
Ab|-7-7-------------|---7-9------------|----------------|-----4-5-7-7-4-5-|-7-7-4-4-----4-7-|
Eb|-----------------|-------7(7)-------|-0--2-0-3-0-4-5-|(5)5-------------|---------7-7-----|



    E E E E E E E E   E E E E E E E E + E E E E E E E E   E E E E E E E E + E E E E E E E E
Gb|-----------------|-----------------|-----------------|-----------------|-----------------|
Db|-----4---5---6---|-7-7-4-4---------|-----------------|-----------------|-----6---7---8---|
Ab|(7)7---7---7---7-|---------7-7-4---|-----4-4-5-5-6-6-|-7-7-4-4-----4-7-|(7)7---7---7-----|
Eb|-----------------|---------------5-|(5)5-------------|---------7-7-----|---------------7-|

                                                                           Out-Chorus

    Q  E E E E E E + Q  E E E E E E + E E E E Q  Q       E E E Q. Q         E E E E E E E E +
Gb|----------------|----6-6-7-7-8-9-|(9)9--------------|------------------|-----------------|
Db|----------9-8-7-|(7)-------------|-----6-6-7--8-----|-9----------------|-----------------|
Ab|----6---9-------|----------------|------------------|---7-9------------|-----------------|
Eb|-7----7---------|----------------|------------------|-------7--7\------|-0-0-2-0-3-0-4-5-|



    E E E E E E E E   E E E E E E E E + E E E E E E E E   E E E E Q  E E + Q   E E E E Q
Gb|-----------------|-----------------|-----------------|----------------|-----6---7---8----|
Db|-----------------|-----------------|-----------------|------------4-7-|(7)----7---7------|
Ab|-----4-4-5-5-6-6-|-7-7-4-4---------|-----------------|-----4---7------|------------------|
Eb|(5)5-------------|---------7-7-4-0-|(0)0-2-0-3-0-4-0-|-5-5---5--------|------------------|

                                                  Free Time

    E E E E E E E E + E E E E E E Q    Q  Q  H     Q  Q  H     W      H   H     H
Gb|-----------------|----------------|----r--r---|----r--r---|-r----|-r---r---|-r-----------|
Db|-----------------|----------------|----e--e---|----e--e---|-e----|-e---e---|-e-----------|
Ab|-7-7-4-4---------|----------------|----s--s---|----s--s---|-s----|-s---s---|-s-----------|
Eb|---------7-7-2-0-|(0)0-4-4-5-5-6--|-7--t--t---|-5--t--t---|-t----|-t---t---|-t-----------|

   In Time                              Free Time

    Q  E Q  E Q  E Q  E   E Q   Q. H.    W +        W        Q  Q  H
Gb|---------------------|--------------|-13///----|(13)----|----r--r---||
Db|------6--6-7--7-8--8-|-9/17\--------|-14///----|(14)----|----e--e---||
Ab|-7--7----------------|--------------|----------|--------|----s--s---||
Eb|---------------------|-------1--0---|-(0)------|(0)-----|-0--t--t---||

Enjoy!!!

| /   slide up            W = whole note
| \   slide down          H = half note          H. = dotted half note
| h   hammer-on           Q = quarter note       Q. = dotted quarter note
| p   pull-off            E = eighth note        E. = dotted eighth note
| ~   vibrato             S = sixteenth note     S. = dotted sixteenth note
| /// tremolo picking
| +   harmonic            X^X^X = triplet
| x   Mute note
==================================================================================================
Расскажи друзьям!




Войдите, используя Ваш аккаунт:



Забыли пароль?
Зарегистрироваться

Привет, гитарист!

Пройди супер-курс по гитаре и порази всех своей игрой!

Забрать курс!
ВАМ ПОДАРКИ ОТ ПРОЕКТА
"ГИТАРНАЯ РЕВОЛЮЦИЯ"