Gitaristu.ru
Аккорды Табулатура Начинающим Мастер-класс Софт Видео Форум Блог
Новости Анонсы Гитары Гитаристы Статьи Аватарки Минусовки
Поиск





Популярные подборы




Настройка гитары






Главная > Аккорды > V > Vaya Con Dios

Аккорды
Vaya Con Dios
-
Nah neh nah (табулатура)



Подбор прислал: gitaristu.ru



Date: Sat, 25 Mar 2006 07:03:48 +0100 (CET)
From: [iso-8859-1] Jan Bjяfffffffffff6rklund 
Subject: v/vaya_con_dios/nah_neh_nah.tab

Nah Neh Nah intro
Vaya Con Dios
TablEdited by Poppamies
Tuning : E A D G B E 	Time Signature: 4/4

 tempo 110       |       |        |       |       |       |        
|----------------9---------------|--------------------------------|
|----------------9---------------|--------------------------------|
|----------------10--------------|--------------------------------|
|----------------11--------------|--------------------------------|
|--------------------------------|------------------------0-------|
|--------------------------------|----------------9---7-------4---|

 |       |       |       |        |       |       |       |        
|--------------------------------|--------------------------------|
|--------------------------------|--------------------------------|
|--------------------------------|6---------------7-6-5-6---------|
|4---4---4-3-4/6-7---7---7-5-7-9-|------------------------7-6-4---|
|--------------------------------|--------------------------------|
|--------------------------------|--------------------------------|

 |       |       |       |        |       |       |       |        
|--------------------------------|7-5-4---------------------------|
|--------------------------------|--------6-----------------------|
|--------------------------------|----------7-6-5-6---------------|
|7---6---6---5/6-6---------------|------------------7-6-------6---|
|--------------------------------|----------------------9-8-------|
|--------------------------------|--------------------------------|

 |       |       |       |        |       |       |       |        
|--------------------------------|--------------------------------|
|--------------------------------|--------------------------------|
|--------------------------------|6---------------------5-6-7-6-5-|
|4---4---4-3-4-6-7---7---7-6-7-9-|--------------------------------|
|--------------------------------|--------------------------------|
|--------------------------------|--------------------------------|

 |       |       |       |        |       |       |       |        
|--------------------------9-109-|109-----------------------------|
|--------------------------------|----12109-12109-----------------|
|6-------------------------------|----------------1110------------|
|----9---9---8---9---------------|--------------------12111011----|
|--------------------------------|----------------------------1211|
|--------------------------------|--------------------------------|

Transcribe  6.0 transcription http://www.seventhstring.demon.co.uk/
Created with TablEdit http://www.tabledit.com/
http://www.geocities.com/jani_bjorklund/janis.html


Расскажи друзьям!




Войдите, используя Ваш аккаунт:



Забыли пароль?
Зарегистрироваться

Привет, гитарист!

Пройди супер-курс по гитаре и порази всех своей игрой!

Забрать курс!
ВАМ ПОДАРКИ ОТ ПРОЕКТА
"ГИТАРНАЯ РЕВОЛЮЦИЯ"