Gitaristu.ru
Аккорды Табулатура Начинающим Мастер-класс Софт Видео Форум Блог
Новости Анонсы Гитары Гитаристы Статьи Аватарки Минусовки
Поиск





Популярные подборы




Настройка гитары






Главная > Аккорды > V > Vaya Con Dios

Аккорды
Vaya Con Dios
-
Puerto rico (бас)



Подбор прислал: gitaristu.ru



Date: Fri, 18 Apr 2003 08:15:15 +0200 (CEST)
From: Jan Bjцrklund 
Subject: v/vaya_con_dios/puerto_rico.btab

vaya_con_dios/puerto_rico.btab

Basstab by Jan Bjorklund, Finland; 
jani_bjorklund@yahoo.se 
You are welcome to request for basstabs 
Bienvenidos a pedirme transcripciones para el bajo 
Be sure to use a monospaced font 

TablEdited by Jan Bjorklund
Tuning : E A D G 	Time Signature: 4/4

 tempo 125       |       |        |       |       |       |        
|------------------------2-------|--------------------------------|
|----------------3---------------|------------------------2-------|
|5-----------5-------------------|----------------3---3-------3---|
|--------------------------------|5-----------5-------------------|

 |       |       |       |        |       |       |       |        
|------------------------2-------|--------------------------------|
|----------------3---------------|------------------------2-------|
|5-----------5-------------------|----------------3---3-------3---|
|--------------------------------|5-----------5-------------------|

 |       |       |       |        |       |       |       |        
|------------------------2-------|--------------------------------|
|----------------3---------------|------------------------2-------|
|5-----------5-------------------|----------------3---3-------3---|
|--------------------------------|5-----------5-------------------|

 |       |       |       |        |       |       |       |        
|------------------------2-------|--------------------------------|
|----------------3---------------|------------------------2-------|
|5-----------5-------------------|----------------3---3-------3---|
|--------------------------------|5-----------5-------------------|

 |       |       |       |        |       |       |       |        
|------------------------2-------|--------------------------------|
|----------------3---------------|------------------------2-------|
|5-----------5-------------------|----------------3---3-------3---|
|--------------------------------|5-----------5-------------------|

 ay , ay , ay, ay, ay    |        ay      |       |     Puerto     
|------------------------2-------|--------------------------------|
|----------------3---------------|------------------------2-------|
|5-----------5-------------------|----------------3---3-------3---|
|--------------------------------|5-----------5-------------------|

 Rico    |       |       |        |       |       |       |        
|------------------------2-------|--------------------------------|
|----------------3---------------|------------------------2-------|
|5-----------5-------------------|----------------3---3-------3---|
|--------------------------------|5-----------5-------------------|

 ay , ay , ay, ay, ay    |        ay      |       |       Puerto   
|------------------------2-------|--------------------------------|
|----------------3---------------|------------------------2-------|
|5-----------5-------------------|----------------3---3-------3---|
|--------------------------------|5-----------5-------------------|

 Rico    |       |       |        |       |       |       | Wake   
|------------------------2-------|--------------------------------|
|----------------3---------------|------------------------2-------|
|5-----------5-------------------|----------------3---3-------3---|
|--------------------------------|5-----------5-------------------|

 up Angelita your|       |        mama just tuned out the |        
|------------------------2-------|--------------------------------|
|----------------3---------------|------------------------2-------|
|5-----------5-------------------|----------------3---3-------3---|
|--------------------------------|5-----------5-------------------|

 light   |       |       |        |       |       |       |   Ma-  
|------------------------2-------|--------------------------------|
|----------------3---------------|------------------------2-------|
|5-----------5-------------------|----------------3---3-------3---|
|--------------------------------|5-----------5-------------------|

 nolo was|already|       |        waiting by the old water|        
|------------------------2-------|--------------------------------|
|----------------3---------------|------------------------2-------|
|5-----------5-------------------|----------------3---3-------3---|
|--------------------------------|5-----------5-------------------|

 bay     |       |       |        |       |       |       |        
|------------------------2-------|--------------------------------|
|----------------3---------------|------------------------2-------|
|5-----------5-------------------|----------------3---3-------3---|
|--------------------------------|5-----------5-------------------|

 Shoes in|one hand she   |        carefully walks don the |        
|------------------------2-------|--------------------------------|
|----------------3---------------|------------------------2-------|
|5-----------5-------------------|----------------3---3-------3---|
|--------------------------------|5-----------5-------------------|

 starirs |       |       |        |       |       |       |        
|------------------------2-------|--------------------------------|
|----------------3---------------|------------------------2-------|
|5-----------5-------------------|----------------3---3-------3---|
|--------------------------------|5-----------5-------------------|

  Holdin'|their breath 'cause there's   danger and love in the         
|------------------------2-------|--------------------------------|
|----------------3---------------|------------------------2-------|
|5-----------5-------------------|----------------3---3-------3---|
|--------------------------------|5-----------5-------------------|

 air     |       |       |        |       |       |       |        
|------------------------2-------|--------------------------------|
|----------------3---------------|------------------------2-------|
|5-----------5-------------------|----------------3---3-------3---|
|--------------------------------|5-----------5-------------------|

 ay , ay , ay, ay, ay    |        ay      |       Puerto  |        
|------------------------2-------|--------------------------------|
|----------------3---------------|------------------------2-------|
|5-----------5-------------------|----------------3---3-------3---|
|--------------------------------|5-----------5-------------------|

 Rico    |       |       |        |       |       |       |        
|------------------------2-------|--------------------------------|
|----------------3---------------|------------------------2-------|
|5-----------5-------------------|----------------3---3-------3---|
|--------------------------------|5-----------5-------------------|

 ay , ay , ay, ay, ay    |        ay      |       |       |        
|------------------------2-------|--------------------------------|
|----------------3---------------|------------------------2-------|
|5-----------5-------------------|----------------3---3-------3---|
|--------------------------------|5-----------5-------------------|

 Rico    |       |       |        |       |       |       |        
|------------------------2-------|--------------------------------|
|----------------3---------------|------------------------2-------|
|5-----------5-------------------|----------------3---3-------3---|
|--------------------------------|5-----------5-------------------|

 |   Your|papa will      |        beat him|       |       |        
|------------------------5-------|--------------------------------|
|------------5---5---------------|----------------4---4-----------|
|3-------------------------3-----|2-----------2-----------2-------|
|--------------------------------|--------------------------------|

 if he ever finds|       |        out     |       |       |        
|------------------------5-------|--------------------------------|
|------------5---5---------------|----------------4---4-----------|
|3-------------------------3-----|2-----------2-----------2-------|
|--------------------------------|--------------------------------|

 Beggin' the virgine one |        help while you'll hear Mano-     
|--------------------------------|--------------------------------|
|----------------5---------------|----------------2---------------|
|3-----------3-----------3-------|0-----------0-----------0-------|
|--------------------------------|--------------------------------|

 lito shout      |       |        |    (and so on...)     |        
|----------------4---------------|--------------------------------|
|2-----------2-----------2-------|----------------5---------------|
|--------------------------------|3-----------3-----------3-------|
|--------------------------------|--------------------------------|

 |       |       |       |        |       |       |       |        
|----------------0-------4-------|--------------------------------|
|2-----------2-------------------|------------------------2-------|
|--------------------------------|----------------3---------------|
|--------------------------------|5-----------5-------------------|

 |       |       |       |        |       |       |       |        
|------------------------2-------|--------------------------------|
|----------------3---------------|------------------------2-------|
|5-----------5-------------------|----------------3---------------|
|--------------------------------|5-----------5-------------------|

 |       |       |       |        |       |       |       |        
|------------------------2-------|--------------------------------|
|----------------3---------------|------------------------2-------|
|5-----------5-------------------|----------------3---------------|
|--------------------------------|5-----------5-------------------|

 |       |       |       |        |    hold you tight        
|------------------------2-------|--------------------------------|
|----------------3---------------|------------------------2-------|
|5-----------5-------------------|----------------3---------------|
|--------------------------------|5-----------5-------------------|

  ( pay attention to this turn around, it't two bars of D min )   
|------------------------2-------|-ay, ay, ay, ay, ay-----2-------|
|----------------3---3-----------|----------------3---------------|
|5-----------5-------------------|5-----------5-------------------|
|--------------------------------|--------------------------------|

 |       |       |       |        |       |       |       |        
|ay,----------------------Puerto-|Rico--------------------2-------|
|------------------------2-------|----------------3---------------|
|----------------3---3-------3---|5-----------5-------------------|
|5-----------5-------------------|--------------------------------|


 |       |       |       |        |       |       |       |        
|--------------------------------|------------------------2-------|
|------------------------2-------|----------------3---------------|
|----------------3---3-------3---|5-----------5-----and so on...--|
|5-----------5-------------------|--------------------------------|


Transcribe  6.0 transcription http://www.seventhstring.demon.co.uk/
Created with TablEdit http://www.tabledit.com/


Расскажи друзьям!




Войдите, используя Ваш аккаунт:



Забыли пароль?
Зарегистрироваться

Привет, гитарист!

Пройди супер-курс по гитаре и порази всех своей игрой!

Забрать курс!
ВАМ ПОДАРКИ ОТ ПРОЕКТА
"ГИТАРНАЯ РЕВОЛЮЦИЯ"