Gitaristu.ru
Аккорды Табулатура Начинающим Мастер-класс Софт Видео Форум Блог
Новости Анонсы Гитары Гитаристы Статьи Аватарки Минусовки
Поиск





Популярные подборы




Настройка гитары






Главная > Аккорды > V > Vaya Con Dios

Аккорды
Vaya Con Dios
-
Whats a woman (бас)



Подбор прислал: gitaristu.ru



Date: Sun, 8 Dec 2002 15:22:50 +0100 (CET)
From: Jan Bjцrklund 
Subject: v/vaya_con_dios/whats_a_woman.btab

vaya_con_dios/what's_a_woman.btab

Basstab by Jan Bjorklund, Finland; 
jani_bjorklund@yahoo.se 
You are welcome to request for basstabs 
Bienvenidos a pedirme transcripciones para el bajo 


TablEdited by Jan Bjorklund
Tuning : E A D G 	Time Signature: 6/8

 tempo 160   |            |           |            |           |            
|----------------0-------|------------------------|------------------------|
|------------0-2---2-0-0-|5-------------------0---|5-----------5---4---3---|
|------------------------|------------------------|------------------------|
|------------------------|------------------------|------------------------|

 |           |            |           |            |           |            
|------------------------|----------------0-------|------------------------|
|2-------------------0---|2-----------0-2---2-0-2-|5-------------------0---|
|------------------------|------------------------|------------------------|
|------------------------|------------------------|------------------------|

 |           |            |           |            |           |            
|------------------------|------------------------|------------------------|
|5-----------5---4---3---|2-------------------0---|2-----------0---2---4---|
|------------------------|------------------------|------------------------|
|------------------------|------------------------|------------------------|

 |           |            |           |            |           |            
|------------------------|------------------------|------------------------|
|5-------------------0---|5-----------5---4---3---|2-------------------0---|
|------------------------|------------------------|------------------------|
|------------------------|------------------------|------------------------|

 |           |            |           |            |           |            
|------------------------|------------------------|------------------------|
|2-----------0---2---4---|5-------------------0---|5-----------5---4---3---|
|------------------------|------------------------|------------------------|
|------------------------|------------------------|------------------------|

 |           |            |           |            |           |            
|------------------------|------------------------|------------------------|
|2-------------------0---|2-----------2---0-------|------------------------|
|------------------------|--------------------2---|0---------------0---3---|
|------------------------|------------------------|------------------------|

 |           |            |           |            |           |            
|------------------------|------------------------|------------------------|
|0-----------0-----------|------------------------|0-----------0---2---4---|
|----------------3---2---|0---------------0---3---|------------------------|
|------------------------|------------------------|------------------------|

 |           |            |           |            |           |            
|------------------------|------------------------|------------------------|
|5-------------------0---|5-----------5---4---3---|2-------------------0---|
|------------------------|------------------------|------------------------|
|------------------------|------------------------|------------------------|

 |           |            |           |            |           |            
|------------------------|------------------------|------------------------|
|2-----------0---2---4---|5-------------------0---|5-----------5---4---3---|
|------------------------|------------------------|------------------------|
|------------------------|------------------------|------------------------|

 |           |            |           |            |           |            
|------------------------|------------------------|------------------------|
|2-------------------0---|2-----------2---0-------|------------------------|
|------------------------|--------------------2---|0---------------0---3---|
|------------------------|------------------------|------------------------|

 |           |            |           |            |           |            
|------------------------|------------------------|------------------------|
|0-----------0-----------|------------------------|0-----------0---2---4---|
|----------------3---2---|0---------------0---3---|------------------------|
|------------------------|------------------------|------------------------|

 |           |            |           |            |           |            
|------------------------|------------------------|------------------------|
|5-------------------0---|5-----------5---4---3---|2-------------------0---|
|------------------------|------------------------|------------------------|
|------------------------|------------------------|------------------------|

 |           |            |           |            |           |            
|------------------------|------------------------|------------------------|
|2-----------0---2---4---|5-------------------0---|5-----------5---4---3---|
|------------------------|------------------------|------------------------|
|------------------------|------------------------|------------------------|

 |           |            |           |            |           |            
|------------------------|------------------------|------------------------|
|2-------------------0---|2-----------2---0-------|------------------------|
|------------------------|--------------------2---|0---------------0---3---|
|------------------------|------------------------|------------------------|

 |           |            |           |            |           |            
|------------------------|------------------------|------------------------|
|0-----------0-----------|------------------------|0-----------0---2---4---|
|----------------3---2---|0---------------0---3---|------------------------|
|------------------------|------------------------|------------------------|

 |           |            |           |            |           |            
|------------------------|------------------------|------------------------|
|5-----------5---5---5---|5-----------------------|------------2-----------|
|------------------------|------------------------|------------------------|
|------------------------|------------------------|0-----------------------|

 |           |            |           |            |           |            
|------------------------|------------------------|------------------------|
|------------2---0-------|------------------------|------------2---0-------|
|--------------------2---|------------------------|--------------------2---|
|------------------------|3-----------------------|------------------------|

 |           |            |           |            |           |            
|------------------------|------------------------|------------------------|
|------------2-----------|------------2---0-------|------------------------|
|------------------------|--------------------2---|------------------------|
|0-----------------------|------------------------|3-----------------------|

 |           |            |           |            |           |            
|------------------------|------------------------|------------------------|
|--------------------5---|------------------------|0-----------0-----------|
|------------------------|0---------------0---3---|----------------3---2---|
|------------------------|------------------------|------------------------|

 |           |            |           |            |           |            
|------------------------|------------------------|------------------------|
|------------------------|0-----------0-----------|------------------------|
|0---------------0---3---|----------------3---2---|0---------------0---3---|
|------------------------|------------------------|------------------------|

 |           |            |           |            |           |            
|------------------------|------------------------|------------------------|
|0-----------0---2---4---|5-------------------0---|5-----------5---4---3---|
|------------------------|------------------------|------------------------|
|------------------------|------------------------|------------------------|

 |           |            |           |            |           |            
|------------------------|------------------------|------------------------|
|2-------------------0---|2-----------0---2---4---|5-------------------0---|
|------------------------|------------------------|------------------------|
|------------------------|------------------------|------------------------|

 |           |            |           |            |           |            
|------------------------|------------------------|------------------------|
|5-----------5---4---3---|2-------------------0---|2-----------2---0-------|
|------------------------|------------------------|--------------------2---|
|------------------------|------------------------|------------------------|

 |           |            |           |               
|------------------------|------------------------|
|------------------------|---- and so  on....-----|
|0---------------0---3---|------------------------|
|------------------------|------------------------|


Transcribe  5.2 transcription http://www.seventhstring.demon.co.uk/
Created with TablEdit http://www.tabledit.com/


Расскажи друзьям!




Войдите, используя Ваш аккаунт:



Забыли пароль?
Зарегистрироваться

Привет, гитарист!

Пройди супер-курс по гитаре и порази всех своей игрой!

Забрать курс!
ВАМ ПОДАРКИ ОТ ПРОЕКТА
"ГИТАРНАЯ РЕВОЛЮЦИЯ"