Gitaristu.ru
Аккорды Табулатура Начинающим Мастер-класс Софт Видео Форум Блог
Новости Анонсы Гитары Гитаристы Статьи Аватарки Минусовки
Поиск





Популярные подборы




Настройка гитары






Главная > Аккорды > V > Veil Of Maya

Аккорды
Veil Of Maya
-
Crawl Back (табулатура)



Подбор прислал: gitaristu.ru
Veil Of Maya
Crawl Back
The Common Mans Collapse

Written By Marc Okubo

Drop B Tuning
B F# B E G# C#

0:00

|----------------------------------------------|
|----------------------------------------------|
|----------------------------------------------|
|--7-------7---7-------8---8-------5---5-------|
|----------------------------------------------|
|----4p0h4---4---4p0h4---5---5p0h5---1---1p0h1-|


|------------------------------------------------|
|------------------------------------------------|
|------------------------------------------------|
|--7-------7---7-------12---12-------8---8-------|
|------------------------------------------------|
|----4p0h4---4---4p0h4----8----8p0h8---5---5p0h5-|


|----------------------------------------------------|
|----------------------------------------------------|
|----------------------------------------------------|
|--10-------10---10-------12---12-------8---8--------|
|----------------------------------------------------|
|-----7p0h7----7----7p0h7----8----8p0h8---5---5p0h5--|


|-----------------------------------------------------|
|-----------------------------------------------------|
|-----------------------------------------------------|
|--10-------10---10-------15--15-------12---12--------|
|-----------------------------------------------------|
|-----7p0h7----7----7p0h7---12--12p0h12---8----8p0h8--|

0:13

|---------------------------------------------------|
|---------------------------------------------------|
|---------------------------------------------------|
|--7-----------8-----5-----7-----------8-----5------|
|--4-0-1-5-4-1-5-0-1-1-0-1-4-0-1-8-7-4-5-0-1-1-0-1--|
|--4-0-1-5-4-1-5-0-1-1-0-1-4-0-1-8-7-4-5-0-1-1-0-1--|


|-----------------------------------------------------------|
|-----------------------------------------------------------|
|-----------------------------------------------------------|
|--7-----------8-----5-----7--------------7--7------12---12-|
|--4-0-1-5-4-1-5-0-1-1-0-1-4-0-1-8-7-4----------------------|
|--4-0-1-5-4-1-5-0-1-1-0-1-4-0-1-8-7-4-0h4--4--4-0h8---8---8|

0:37

|--------------------------------------------------------|
|--------------------------------------------------------|
|--------------------------------------------------------|
|--7--------------------------7--------------------------|
|--4-0-1-5-4-1--5------1------4-0-1-8-7-4--5------1------|
|--4-0-1-5-4-1--5-5555-1-1111-4-0-1-8-7-4--5-5555-1-1111-|

0:43

|----------------------------------------------------|
|----------------------------------------------------|
|------------------------------------------77----55--|
|------------------33----22--------------88----77----|
|--------------------------------1100----------------|
|--5511445544115511--4411--551144----4455----44------|


|------------------66----55--------6655----66--------11-11-|
|--------------------------------------88---------88-------|
|--7755----------77----77--7755----------77----------------|
|------8877778855----44--------8877----------10-10---------|
|----------------------------------------------------------|
|----------------------------------------------------------|

0:56 (Probably Not Accurate. The 0
Расскажи друзьям!




Войдите, используя Ваш аккаунт:



Забыли пароль?
Зарегистрироваться

Привет, гитарист!

Пройди супер-курс по гитаре и порази всех своей игрой!

Забрать курс!
ВАМ ПОДАРКИ ОТ ПРОЕКТА
"ГИТАРНАЯ РЕВОЛЮЦИЯ"