Gitaristu.ru
Аккорды Табулатура Начинающим Мастер-класс Софт Видео Форум Блог
Новости Анонсы Гитары Гитаристы Статьи Аватарки Минусовки
Поиск





Популярные подборы




Настройка гитары






Главная > Аккорды > V > Veruca Salt

Аккорды
Veruca Salt
-
Loneliness is worse (табулатура)

Не нашли аккорды к песне? Посмотрите на Mytabs.ru


Подбор прислал: gitaristu.ru



Date: Wed, 11 Mar 1998 16:53:34 -0800 (PST)
From: emma gordon 
Subject: v/veruca_salt/loneliness_is_worse.tab

song:Loneliness is Worse
artist:Veruca Salt
album:Eight Arms to Hold You
transcribed by:John
sent in by:Emma Gordon

*heavy distortion*

chords used in intro:
e:--2--0--0--3--
B:--3--2--0--0--
G:--2--2--2--0--
D:--0--2--2--0--
A:-----0--2--2--
E:--------0--3--
    D  A  Em G  

intro D D A A A Em Em G G G (x2) 
e:-------------------------
B:-------------------------
G:------------7b-----------
D:-----4-sl-7--------------
A:-------------------------
E:-------------------------
do this 8 times

verse:
e:--4-4-4-4-----------------2-3-3-----
B:--4-4-4-4-3-3-3-3-2-2-2-2-2-3-3-----
G:--4-4-4-4-2-2-2-2-2-2-2-2-2-4-4-----
D:--4-4-4-4-2-2-2-2-2-2-2-2-4-5-5-----
A:--2-2-2-2-----------------4-5-5-----
E:--------------------------2-3-3-----
repeat twice each verse

pre-chorus:
e:--4-4-4-4-4-4-4-4-----------------------------------
B:--4-4-4-4-4-4-4-4-----------------------------------
G:--4-4-4-4-4-4-4-4-----------------5-5-5---7-7-7---4-
D:--4-4-4-4-4-4-4-4-5-5-5-5-5-5-5-5-5-5-5-5-7-7-7-7-4-
A:--2-2-2-2-2-2-2-2-5-5-5-5-5-5-5-5-3-3-3-5-5-5-5-7-2-
E:------------------3-3-3-3-3-3-3-3-------3-------5---

chorus:
e:----------------------------------------------
B:----------------------------------------------
G:--7-7-------4-4-------7-7---------------------
D:--7-7-7-7-7-4-4-5-5-5-7-7-7-7-7-2-2-5-5-5-----
A:--5-5-7-7-7-2-2-5-5-5-5-5-7-7-7-2-2-5-5-5-----
E:------5-5-5-----3-3-3-----5-5-5-----3-3-3-----

e:----------------------------------
B:----------------------------------
G:--7-7-----------------7-5---------
D:--7-7-7-7-7-2-2-7-7-7-7-5-5-7-----
A:--5-5-7-7-7-2-2-7-7-7-5-3-5-7-----
E:------5-5-5-----5-5-5-----3-5-----

bridge:
e:--3-0-2-3-4---3-2------------------------------------
B:--0-2-3-0-4-2-0-3------------------------------------
G:--0-2-2-0-4-2-0-2-----------------7-7-7-7-7-7-7-7----
D:--0-2-0-0-4-2-0-0-5-5-5-5-5-5-5-5-7-7-7-7-7-7-7-7----
A:--2-0---2-2-0-2---5-5-5-5-5-5-5-5-5-5-5-5-5-5-5-5----
E:--3-----3-----3---3-3-3-3-3-3-3-3--------------------

e:-----------------------------------------------------
B:-----------------------------------------------------
G:------------------4-4-4-4-4-4-4-4--------------------
D:--7-7-7-7-7-7-7-7-4-4-4-4-4-4-4-4-5-5-5-5-7-7-7-7----
A:--7-7-7-7-7-7-7-7-2-2-2-2-2-2-2-2-5-5-5-5-7-7-7-7----
E:--5-5-5-5-5-5-5-5-----------------3-3-3-3-5-5-5-5----

outro:
    d d d d u d u d 
e:--4-4-0-0-3-3-2-2-----
B:--4-4-2-2-0-0-3-3-----
G:--4-4-2-2-0-0-2-2-----
D:--4-4-2-2-0-0-0-0-----
A:--2-2-0-0-2-2---------
E:----------3-3---------

play over and over until it stops. the last 2 chords in the outro have
a syncopated rhythm. just piece it together. this song is not a
single, hopefully it will be soon.


Расскажи друзьям!




Войдите, используя Ваш аккаунт:



Забыли пароль?
Зарегистрироваться

Привет, гитарист!

Пройди супер-курс по гитаре и порази всех своей игрой!

Забрать курс!
ВАМ ПОДАРКИ ОТ ПРОЕКТА
"ГИТАРНАЯ РЕВОЛЮЦИЯ"