Gitaristu.ru
Аккорды Табулатура Начинающим Мастер-класс Софт Видео Форум Блог
Новости Анонсы Гитары Гитаристы Статьи Аватарки Минусовки
Поиск





Популярные подборы




Настройка гитары






Главная > Аккорды > V > Veruca Salt

Аккорды
Veruca Salt
-
Never met her (табулатура)



Подбор прислал: gitaristu.ru



From: D'ArcyZero the Goddess of Wine 
Subject: v/veruca_salt/never_met_her.tab
Date: Fri, 03 Apr 1998 13:41:49 PST

Never Met Her (Louise Post) from the Benjamin single
tabbed by D*Arcy (darcyzero@hotmail.com)

Em		     C D Em
I've never met her...
Em C D Em
Em C D Em
Em C D Em
E, C D Em
Em C D Em
Em C D Em
Em C D Em

e---7---7---5---5-----------------7-----7--8--10--7--3--5--7
B-8---8---7---7---5--0---5--3--0--8-------------------------
G----------------------2-------2----7-----------------------
D-------------------------------------9---------------------

E--3--0--2--3--0--7-------------0----------7---7---7---7---7
B-----------------8-----5--5--3---0---0--8---8---8---8---8--
G-------------------7---------------2-----------------------
D---------------------9-------------------------------------

e---7---5------
B-8---7---7--8-

Em	      C	   D Em
Touchdown I hear...
E C D Em
Em C D Em
Em C D Em

Em-022000
C-X32010
D-X00232

I'm not sure about the Em parts, but it sounds pretty close


Расскажи друзьям!




Войдите, используя Ваш аккаунт:



Забыли пароль?
Зарегистрироваться

Привет, гитарист!

Пройди супер-курс по гитаре и порази всех своей игрой!

Забрать курс!
ВАМ ПОДАРКИ ОТ ПРОЕКТА
"ГИТАРНАЯ РЕВОЛЮЦИЯ"