Gitaristu.ru
Аккорды Табулатура Начинающим Мастер-класс Софт Видео Форум Блог
Новости Анонсы Гитары Гитаристы Статьи Аватарки Минусовки
Поиск





Популярные подборы




Настройка гитары






Главная > Аккорды > V > Veruca Salt

Аккорды
Veruca Salt
-
Seether (табулатура)



Подбор прислал: gitaristu.ru



Subject: v/veruca_salt/seether.tab
From: Jonathan Gilana 

SEETHER by Veruca Salt 
Transcribed by Jonathan Gilana (gilajon@minna.acc.iit.edu)
November 25, 1994

intro (rhythm pattern):
/=slide
             (repeat this      (repeat this measure 4X
              measure 3X        amp; let D5 ring/sustain)
 
    B5            B5           B5   A5    D5     B5 D5
E-----------|-------------|--------------------------------------------
B-----------|-------------|--------------------------------------------
G-----------|-------------|--------------------------------------------
D-----------|-------------|--------------------------------------------
A-9-9-9-9---|---9-9-9-9---|----9-9-7-7-7-12-12-12-9/12-----------------
E-7-7-7-7---|---7-7-7-7---|----7-7-5-5-5-10-10-10-7/10-----------------

         OW 

verse 1:(palm mute strings by fingering the chord normally, and putting 
your right hand against the strings, and strumming)

B5
Seether is...
A5
B5
A5

(no palm mute)
B5 G#5     E5     B5
I  try to keep...
B5 G#5 E5 B5
B5 G#5 E5 A#5 B5

*chorus:(no palm mute)
B5    A5      D5 B5 D5
Can't fight...
B5 A5 D5 B5 D5
B5 A5 D5 B5 D5
B5 D5 B5 E5 B5

verse 2:(w/ palm mute)
B5
Seether is...
A5
B5
A5 

(no palm mute)
B5 G#5     E5    B5
I  try to rock...
B5 G#5 E5 B5
B5 G#5 E5 B5 A#5 B5

*CHORUS

B5        D5
Keep her...
E5
F#5
E5
E5
D5
E5
F#5
F#5



*CHORUS (2X)

outro:
                                                 (let E5     
                                                 ring/sustain)
     B5            B5          B5   A5      A5   E5
E----------------------------------------------------------------
B----------------------------------------------------------------
G----------------------------------------------------------------
D-------------------------------------------------9--------------
A--9-9-9-9-------9-9-9-9-------9-9-7-7-7---7-7-7--7--------------
E--7-7-7-7-------7-7-7-7-------7-7-5-5-5---5-5-5-----------------

                         Yeah 

--


Jonathan Gilana          gilajon@minna.acc.iit.edu


                                   SEETHER
                                 VERUCA SALT

Tune down half step (eb,Bb,Gb,Db,Ab,Eb)

INTRO:			     (Rhy.Fig.1)
 B5		B5	      B5    A5	     D5	       B5 D5
e------------|-------------||--------------------------------
B------------|-------------||--------------------------------
G------------|-------------||--------------------------------
D-9-9-9-9-9--|--9-9-9-9-9--||-9-9-9-7-7-7-7--12-12-12--9--12--
A-9-9-9-9-9--|--9-9-9-9-9--||-9-9-9-7-7-7-7--12-12-12--9--12--
E-7-7-7-7-7--|--7-7-7-7-7--||-7-7-7-5-5-5-5--10-10-10--7--10--
           Ow  (repeat 3x)   (then at end of 3rd play this)

VERSE:  (guitar 1 palm mute, guitar 2 plays muted strings)
e----------------------------------------
B-----------slide hand-------------------
G-----------on strings-------------------
D-9-9-9-9-/to make a----7-7-7-7---------
A-9-9-9-9-/squeaking----7-7-7-7---------
E-7-7-7-7-/sound, 2x----5-5-5-5---------
  pm.....|               pm............|
  Seether is...
  Seether is...

  B5   G#5    E5	    B5	         G#5   A5
e--------------------------------------|------------
B--------------------------------------|------------
G-------------9-9-9--------------------|------------
D-9-9--6-6-6--9-9-9---------9-9-9------|-6-6---7-7--
A-9-9--6-6-6--7-7-7---------9-9-9------|-6-6---7-7--
E-7-7--4-4-4--7-7-7---------7-7-7------|-4-4---5-5--
    I  try to...
    I  try to...
    I  try to...

CHORUS:  Play Rhy.Fig.1
B5    A5      D5 B5 D5
Can't fight...
B5 E5 B5

VERSE 2: (Same as VERSE 1)
B5	      A5
Seether is...
Seether is...

  B5   G#5    E5	    B5	     G#5   A5
e----------------------------------|------------
B----------------------------------|------------
G-------------9-9-9----------------|------------
D-9-9--6-6-6--9-9-9---------9-9-9--|-6-6---7-7--
A-9-9--6-6-6--7-7-7---------9-9-9--|-6-6---7-7--
E-7-7--4-4-4--7-7-7---------7-7-7--|-4-4---5-5--
    I  try to rock...
    I  try to knock...
    I  try to cram...

CHORUS

Then This:  (with palm mute)
  B5		  D5		   E5
e-------------------------------------------
B-------------------------------------------
G-----------------7-7-7-7----------9-9-9-9--
D-9-9-9-9---------7-7-7-7----------9-9-9-9--
A-9-9-9-9---------5-5-5-5----------7-7-7-7--
E-7-7-7-7---------5-5-5-5----------7-7-7-7--
         Keep her down...
	    G5			  D5
e------------------------------------------
B------------------------------------------
G---------------------------------7-7-7-7--
D-----------5-5-5-5---------------7-7-7-7--
A-----------5-5-5-5---------------5-5-5-5--
E-----------3-3-3-3---------------5-5-5-5--
   Keep her down...
    E5	     			        D5
e-----------------------------------------------------------------------
B-----------------------------------------------------------------------
G---9-9---9--9---9----9----9-----9-----7-7-----------------------------
D---9-9---9--9---9----9----9-----9-----7-7-----------------------------
A---7-7---7--7---7----7----7-----7-----5-5-----------------------------
E---7-7---7--7---7----7----7-----7-----5-5--Let ring-------------------  
  Oh  she is...
  Oh she may...
e----------------------------------------------
B----------------------------------------------
G-/11-11-11-11---------------------------------
D-/11-11-11-11---------------------------------
A-/9--9--9--9----------------------------------
E-/9--9--9--9----------------------------------
    But she's a...

SOLO (Louise ): Play over Rhy.Fig.1
e--------5-------2-----------------------------------
B--0-0---0---0---0---0--5-0-2-3--2h3p2p0-------------
G--4-4--(4)--4--(4)--4--4----------------------------
D----------------------------------------------------
A----------------------------------------------------
E----------------------------------------------------

e--7p4--4h5p4----------------------------------------
B-------------5--4-5-6-7--9-7-9-9b-r-9-7-9p7---------
G-------------------------------------------h9-7(7)--
D----------------------------------------------------
A----------------------------------------------------
E----------------------------------------------------

e---------------------------------9br9br9br-7-9bf----
B---------------9-7(7)---9-7--9-7--------------------
G--9p7----------9-7(7)---9-7--9-7--------------------
D-----h9-7-7-6---------9-----------------------------
A----------------------------------------------------
E----------------------------------------------------

CHORUS (2X)

OUTRO:
   B5		 B5		 B5	A5	A5     E5
e------------------------------------------------------------------
B------------------------------------------------------------------
G------------------------------------------------------9-----------
D--9-9-9-9-9-----9-9-9-9-9-------9-9-9--7-7-7---7-7-7--9-----------
A--9-9-9-9-9-----9-9-9-9-9-------9-9-9--7-7-7---7-7-7--7-----------
E--7-7-7-7-7-----7-7-7-7-7-------7-7-7--5-5-5---5-5-5--7-----------
                           Yeah 			let ring...

b   = bend
f   = full
r   = release
h   = hammer on
p   = pull off
/   = slide up
   = slide down
(#) = sustain note

transcribed by Bill Choi (bchoi@net2.intserv.com)


Расскажи друзьям!




Войдите, используя Ваш аккаунт:



Забыли пароль?
Зарегистрироваться

Привет, гитарист!

Пройди супер-курс по гитаре и порази всех своей игрой!

Забрать курс!
ВАМ ПОДАРКИ ОТ ПРОЕКТА
"ГИТАРНАЯ РЕВОЛЮЦИЯ"