Gitaristu.ru
Аккорды Табулатура Начинающим Мастер-класс Софт Видео Форум Блог
Новости Анонсы Гитары Гитаристы Статьи Аватарки Минусовки
Поиск





Популярные подборы




Настройка гитары






Главная > Аккорды > V > Veruca Salt

Аккорды
Veruca Salt
-
Shimmer like a girl (табулатура)



Подбор прислал: gitaristu.ru



Subject: v/veruca_salt/shimmer_like_a_girl.tab

Veruca Salt - Shimmer like a girl

from Blow It Out Your Ass, It's Veruca Salt CDEP
DGCDM-22212

transcribed by nigel

**********
guitar tab
tuning - normal

s= slide
b= bend

intro {not very well transcribed, but it's not that important}
e-----------------------------------------------------------------------|
B----------------------------x---------------x-----------------10b------|
G----------------------------x-----5b6---------screechingx-x------------|
D------------feedback--------x------------x----------------x--x---------|
A-----------------12---------x----------x-----------------------x-------|
E-feedback---5s-11------------------------------------------------------|

e-----------------------------------------------|
B-----------------------------------------------|
G-----------------------------------------------|  X 8
D-4--4-0-3--3-0--1--1-s4--4-4-0-5--5-5-5-5-5-5--|
A-4--4-0-3--3-0--1--1-s4--4-4-0-5--5-5-5-5-5-5--|
E-4--4-0-3--3-0--1--1-s4--4-4-0-3--3-3-3-3-3-3--|

well i don't...
  pm.......................
e-----------------------------------------------|
B-----------------------------------------------|
G-----------------------------------------------|
D-6-6-6-6-6-6-6-6-6-6-6-6-6-6-6-6---------------|
A-6-6-6-6-6-6-6-6-6-6-6-6-6-6-6-6---------------|
E-4-4-4-4-4-4-4-4-4-4-4-4-4-4-4-4---------------|

 shimmer shimmer...
e-----------------------------------------------|
B-----------------------------------------------|
G-----------------------------------------------|
D-5--5--8-8-8----------3-3-3-6-6-6--------------| X 3
A-5--5--8-8-8----------3-3-3-6-6-6--------------|
E-3--3--6-6-6----------1-1-1-4-4-4--------------|

get it, glimmer...
e-----------------------------------------------|
B-----------------------------------------------|
G-----------------------------------------------|
D-5-5-5-5-5-5-5-5--s11-11-----------------------|
A-5-5-5-5-5-5-5-5--s11-11-----------------------|
E-3-3-3-3-3-3-3-3--s9--9------------------------|


e-----------------------------------------------|
B-----------------------------------------------|
G-----------------------------------------------|
D-1-1-1--4-4-4-4--5-----------------------------|
A-1-1-1--4-4-4-4--5-----------------------------|
E-1-1-1--4-4-4-4--5-----------------------------|


  she's crashing...
e-----------------------------------------------|
B-----------------------------------------------|
G-----------------------------------------------| X 8
D-4--4-0-3--3-0--1--1-s4--4-4-0-5--5-5-5-5-5-5--|
A-4--4-0-3--3-0--1--1-s4--4-4-0-5--5-5-5-5-5-5--|
E-4--4-0-3--3-0--1--1-s4--4-4-0-3--3-3-3-3-3-3--|


well i don't care...
  pm.......................
e-----------------------------------------------|
B-----------------------------------------------|
G-----------------------------------------------|
D-6-6-6-6-6-6-6-6-6-6-6-6-6-6-6-6---------------|
A-6-6-6-6-6-6-6-6-6-6-6-6-6-6-6-6---------------|
E-4-4-4-4-4-4-4-4-4-4-4-4-4-4-4-4---------------|

 shimmer shimmer...
e-----------------------------------------------|
B-----------------------------------------------|
G-----------------------------------------------| X 3
D-5--5--8-8-8----------3-3-3-6-6-6--------------|
A-5--5--8-8-8----------3-3-3-6-6-6--------------|
E-3--3--6-6-6----------1-1-1-4-4-4--------------|

get it...
e-----------------------------------------------|
B-----------------------------------------------|
G-----------------------------------------------|
D-5-5-5-5-5-5-5-5--s11-11-11-11-11-11-11-11-11--|
A-5-5-5-5-5-5-5-5--s11-11-11-11-11-11-11-11-11--|
E-3-3-3-3-3-3-3-3--s9--9--9--9--9--9--9--9--9---|


e-----------------------------------------------|
B-----------------------------------------------|
G-----------------------------------------------|
D-3-3-3-6-8-8----5-5-5-8-10-10------------------| X 7
A-3-3-3-6-8-8----5-5-5-8-10-10------------------|
E-1-1-1-4-6-6----3-3-3-6-8--8-------------------|

e-----------------------------------------------|
B-----------------------------------------------|
G-----------------------------------------------|
D-6-6-6-6-6-6-6-6-6-6-6-6-6-6-6-6---|
A-6-6-6-6-6-6-6-6-6-6-6-6-6-6-6-6---|
E-4-4-4-4-4-4-4-4-4-4-4-4-4-4-4-4----|

e-----------------------------------------------|
B-----------------------------------------------|
G-----------------------------------------------|
D-5--5--8-8-8----------3-3-3-6-6-6--------------| X 16
A-5--5--8-8-8----------3-3-3-6-6-6--------------|
E-3--3--6-6-6----------1-1-1-4-4-4--------------|

yeah
{bracketed notes are held down, with occasional harmonics}

e(3)(3)-|
B(3)(3)-|
G(4)(4)-|
D-5--5--| X 16
A-5--5--|
E-3--3--|

e-(4)(4)|
B-(4)(4)|
G-(5)(5)|
D--6--6-| X 6
A--4--4-|
E--4--4-|


Расскажи друзьям!




Войдите, используя Ваш аккаунт:



Забыли пароль?
Зарегистрироваться

Привет, гитарист!

Пройди супер-курс по гитаре и порази всех своей игрой!

Забрать курс!
ВАМ ПОДАРКИ ОТ ПРОЕКТА
"ГИТАРНАЯ РЕВОЛЮЦИЯ"