Gitaristu.ru
Аккорды Табулатура Начинающим Мастер-класс Софт Видео Форум Блог
Новости Анонсы Гитары Гитаристы Статьи Аватарки Минусовки
Поиск





Популярные подборы




Настройка гитары






Главная > Аккорды > V > Veruca Salt

Аккорды
Veruca Salt
-
Straight (табулатура)



Подбор прислал: gitaristu.ru



From: D'ArcyZero the Goddess of Wine 
Subject: v/veruca_salt/straight.crd
Date: Wed, 01 Apr 1998 20:58:48 PST

Straight (Louise Post) from Eight Arms to Hold You
tabbed by D*Arcy (darcyzero@hotmail.com)

feedback intro (I couldn't figure it out)
Riff 1
e-------------------------                     	h=hammer on
B-------------------------                      X=muted string
G-------------------------                      s=slide
D-7--4--4--9---4--4--7--4-                      b=bend
A-7--4--4--9---4--4--7--4-  2x	                p=pull off
E-5--2--2--7---2--2--5--2-

Riff 2
e-----------------------------------------------------------
B----------------------------------4s7----------------------
G----------------------------------4s7----------------------
D-4----4--4--4-----4--4---4----4---XsX---4--4-4-4-4-4---4-4-
A-4----4--4--4-----4--4---4----4---2s5---4--4-4-4-4-4---4-4-
E-2----2--2--0h2---2--2---0h2--2---------2--2-2-2-2-2---2-2-

e--------------------------------------------------------
B----------4s7------------------------------------4--4s7-
G----------4s7------------------------------------4--4s7-
D-4--4--4--XsX----4--4--4--4--4--4---4--4--4---4--X--XsX-
A-4--4--4--2s5----4--4--4--4--4--4---4--4--4---4--2--2s5-
E-2--2--2---------2--2--2--2--2--0h2-2--2--0h2-2---------

e----------------------------------
B----------------------------------
G----------------------------------
D----4--4--4--4-----4-----4--4---4-
A----4--4--4--4-----4-----4--4---4-
E----2--2--2--2-----2-----2--2---2-

Riff 3: 2x
e------------------------------------------------------
B------------------------------------------------------
G------------------------------------------------------
D-7-4-4-9--4-4-7-4--7-4-4-9--4-4-7-4--7-4-4-9--4-4-7-2-
A-7-4-4-9--4-4-7-4--7-4-4-9--4-4-7-4--7-4-4-9--4-4-7-2-
E-5-2-2-7--2-2-5-2--5-2-2-7--2-2-5-2--5-2-2-7--2-2-5-2-

e------------------
B------------------
G------------------
D-5-5-5-5--5-5-5-5-
A-5-5-5-5--5-5-5-5-
E-3-3-3-3--3-3-3-3-

Riff 2
Riff 3 2x

Riff 4
--------------------------------------------------------------------
--------------------------------------------------------------------
--------------------------------------------------------------------
-7-4-4-9--4-4-7-4--7-4-4-9--4-4-7--7-4-4-9--4-4-7-4--7-4-4-9--4-4-7-
-7-4-4-9--4-4-7-4--7-4-4-9--4-4-7--7-4-4-9--4-4-7-4--7-4-4-9--4-4-7-
-5-2-2-7--2-2-5-2--5-2-2-7--2-2-5--5-2-2-7--2-2-5-2--5-2-2-7--2-2-5-

solo
G-16b---16b---16b---16b---16b---14--14b---14---14--14----------
D-----------------------------------------------------16p14-16-

e----------------------------14---14-
B-------------17-17-14-17b-----------
G-14-16p14-16------------------------

Riff 2
Riff 3 3x
Riff 4 3x

hope you like it  it took a LONG time to figure the whole thing out. 
Theres another guitar playing some different stuff in some parts, but it 
sounds fine like this


Расскажи друзьям!




Войдите, используя Ваш аккаунт:



Забыли пароль?
Зарегистрироваться

Привет, гитарист!

Пройди супер-курс по гитаре и порази всех своей игрой!

Забрать курс!
ВАМ ПОДАРКИ ОТ ПРОЕКТА
"ГИТАРНАЯ РЕВОЛЮЦИЯ"