Gitaristu.ru
Аккорды Табулатура Начинающим Мастер-класс Софт Видео Форум Блог
Новости Анонсы Гитары Гитаристы Статьи Аватарки Минусовки
Поиск





Популярные подборы




Настройка гитары






Главная > Аккорды > V > Veruca Salt

Аккорды
Veruca Salt
-
The morning sad (табулатура)



Подбор прислал: gitaristu.ru



Subject: v/veruca_salt/the_morning_sad.tab

-= the morning sad =-
     Veruca Salt

from the album Eight Arms to Hold You
written by Nina Gordon

tabbed by beth

chords-

  E5       G#5        A5        B5       F#5
022xxx    466xxx    577xxx    799xxx    244xxx

the other chords are mostly standard barre chords.

the riffs, the bridge, and the third verse are played 
with a fairly clean tone. the rest is distorted.

riff a-

e-----------12-----------12--------------
B--------12-----------14-----------------
G-----13--------13-14--------//13-11-----
D----------------------------------------
A----------------------------------------
E----------------------------------------

riff b-

e-----------12-----------12-------------------
B--------12-----------14----------------------
G-----13--------13-14--------//13-11-9-11-----
D---------------------------------------------
A---------------------------------------------
E---------------------------------------------

riff c-

e-----------12-----------12-------------------
B--------12-----------14-------------12-11----
G-----13--------13-14--------//13-11----------
D---------------------------------------------
A---------------------------------------------
E---------------------------------------------

riff d-

e---------------------------------------------
B---------------------------------------------
G-----9-9--8--6-------------------------------
D----------------8----------------------------
A---------------------------------------------
E---------------------------------------------

riff e-

e-----------12-----------12---------
B--------12-----------14------------
G-----13--------13-14--------11-----
D-----------------------------------
A-----------------------------------
E-----------------------------------

verse 1 -

E5   G#5      A5
wake up and...
E5 B5 F#5
E5 A5
E5 B5
A5

             E         A
but when the morning's...
E F# B
A B A

            E     A     F#
            riff a (guitar 2)
the morning sad...
E     A     F#
riff b (guitar 2)

            E
            riff c (guitar 2)
the morning sad...
A F#
A

verse 2 -
(same chords as verse 1 with guitar two playing some 
other stuff that I can't quite figure out... anyone)

bridge-

(clean tone)
B         E         A
i tried a little...
B
E A

(more distorted)
        F#       A
i don't think...
F# D

solo (go Louise  ) 
other guitar plays  E - A - F# - A

E5    A5        F#5     C5
never had it so bad...             x5

E5    A5        F#5   C5 /// D5
riff e (guitar 2)
never had it so bad...             x4

yeah yeah yeah

end with                                  

guitar 1
E - A - E

guitar 2                                  
e-----------12-----------12---------------9---
B--------12-----12----14----14----12-12---9---
G-----13-----------14----------13---------9---
D-----------------------------------------9---
A---------------------------------------------
E---------------------------------------------

any corrections, additions or whatever 
can be mailed to bjsmith@uvic.ca


Расскажи друзьям!




Войдите, используя Ваш аккаунт:



Забыли пароль?
Зарегистрироваться

Привет, гитарист!

Пройди супер-курс по гитаре и порази всех своей игрой!

Забрать курс!
ВАМ ПОДАРКИ ОТ ПРОЕКТА
"ГИТАРНАЯ РЕВОЛЮЦИЯ"