Gitaristu.ru
Аккорды Табулатура Начинающим Мастер-класс Софт Видео Форум Блог
Новости Анонсы Гитары Гитаристы Статьи Аватарки Минусовки
Поиск





Популярные подборы




Настройка гитары






Главная > Аккорды > V > Veruca Salt

Аккорды
Veruca Salt
-
Victrola (аккорды)



Подбор прислал: gitaristu.ru



Subject: v/veruca_salt/victrola.crd
From: Josh.Allard@Nighter.Com

Play that 4 times then:

   G5     A#5 A5 G5        A#5 A5 G5
 -----------------------------------
 -----------------------------------
 -----------------------------------
 --5--5-5-8-8-7--5--5--5-5-8-8-7--5-
 --5--5-5-8-8-7--5--5--5-5-8-8-7--5-
 --3--3-3-6-6-5--5--3--3-3-6-6-5--3-

PM = Palm Mute
G5(PM)               C5(PM)   F5(PM)
You're so wonderful...

   G5(PM)      C5(PM)   C5
I adore you...

   G5     A#5 A5 G5        A#5 A5 G5
 -----------------------------------
 -----------------------------------
 -----------------------------------
 --5--5-5-8-8-7--5--5--5-5-8-8-7--5-
 --5--5-5-8-8-7--5--5--5-5-8-8-7--5-
 --3--3-3-6-6-5--5--3--3-3-6-6-5--3-

Play that 4 times then:

G5(PM)               C5(PM)  F5(PM)
You're so audio...

    G5(PM)      C5(PM)   C5
To a movie...

then she plays this:
  G5     A#5 A5 G5        A#5 A5 G5      A#5 A5 G5
 -------------------------------------------------
 -------------------------------------------------
 -------------------------------------------------
 --5--5-5-8-8-7--5--5--5-5-8-8-7--5--5-5-8-8-7--5-
 --5--5-5-8-8-7--5--5--5-5-8-8-7--5--5-5-8-8-7--5-
 --3--3-3-6-6-5--5--3--3-3-6-6-5--3--3-3-6-6-5--3-

then it goes to the solo which i have no clue.
I think that it is just the same riff and the
beginning played over and over. Although it sounds
higher.

Then everything drops out and its just guitar playing this:

   G5     A#5 A5 G5        A#5 A5 G5
 -----------------------------------
 -----------------------------------
 -----------------------------------
 --5--5-5-8-8-7--5--5--5-5-8-8-7--5-
 --5--5-5-8-8-7--5--5--5-5-8-8-7--5-
 --3--3-3-6-6-5--5--3--3-3-6-6-5--3-

she plays that 4 times then goes to the third verse:

G5(PM)             C5(PM) F5(PM)
You're my winter...
G5(PM) C5(PM)
G5(PM) C5(PM) G5

Then she plays the begining riff again 7 times then ends of a G5 chord.

I'm not sure about all the chords or the lyrics during the verse.
If anyone has any suggestions or any ideas aobut the solo please
write me at josh.allard@nighter.com


Расскажи друзьям!




Войдите, используя Ваш аккаунт:



Забыли пароль?
Зарегистрироваться

Привет, гитарист!

Пройди супер-курс по гитаре и порази всех своей игрой!

Забрать курс!
ВАМ ПОДАРКИ ОТ ПРОЕКТА
"ГИТАРНАЯ РЕВОЛЮЦИЯ"