Gitaristu.ru
Аккорды Табулатура Начинающим Мастер-класс Софт Видео Форум Блог
Новости Анонсы Гитары Гитаристы Статьи Аватарки Минусовки
Поиск





Популярные подборы




Настройка гитары






Главная > Аккорды > V > Veruca Salt

Аккорды
Veruca Salt
-
Volcano girls (табулатура)



Подбор прислал: gitaristu.ru



From: David Harrison 
Subject: v/veruca_salt/volcano_girls.tab

Volcano Girls 
As performed by Veruca Salt
Album Title: Eight Arms to Hold You

This is a pretty easy song to play but it sounds kinda
cool so who gives a sh*t right. Anyway have fun with it. 
If you have any questions, comments, additions, or 
corrections feel free to e-mail me at the address above.


TAB EXPLAINATION:
b - bend
r - release
~ - vibrato
 - slide down the fret
/ - slide up the fret
X - mute
p - pull off
h - hammer on
p.m. - palm mute


E|-------------------------------------------------------------|
B|-------------------------------------------------------------|
G|--4---4/77---7/99---944---4/77---7/99---944---4/77---7/99--|
D|--4---4/77---7/99---944---4/77---7/99---944---4/77---7/99--|
A|--2---2/55---5/77---722---2/55---5/77---722---2/55---5/77--|
E|-------------------------------------------------------------|

E|----{          3x            }-------------------------------|
B|----------------3-------5------------------------------------|
G|--9-24X7999-4--5b~~-7--7b~~~-2447999---4444444444444444-----|
D|--9-24X7999X40------70-------24479994-4444444444444444--22-|
A|--7-02X5777X20------50-------0225777---2222222222222222--22-|
E|----------------------------------------------------------00-|

E|-------------------------------------------------------------|
B|-------------------------------------------------------------|
G|-------------------4444444444444444------------------2-4-444-|
D|-22222---5555555---4444444444444444--55555555--77777-2-4-444-|
A|-222220--55555550--2222222222222222--55555555--77777-0-2-222-|
E|-000000--33333330--------------------33333333--55555---------|

E|-------------------------------------------------------------|
B|-------------------------------------------------------------|
G|-44444444444----------------------4444444444444444-----------|
D|-44444444444--2222222---5555555---4444444444444444--55555555-|
A|-22222222222--22222220--55555550--2222222222222222--55555555-|
E|--------------00000000--33333330--------------------33333333-|

E|-------------------------------------------------------------|
B|-------------------------------------------------------------|
G|-----------4---4/77---7/99---944---4/77---7/99---9-24X7999-|
D|-77777777--4---4/77---7/99---944---4/77---7/99---9-24X7999-|
A|-77777777--2---2/55---5/77---722---2/55---5/77---7-02X5777-|
E|-55555555----------------------------------------------------|

E|------------------------------------------------------------|
B|-------3-------5--------------------------------------------|
G|---4--5b~~-7--7b~~~--2447999----4444444444444444------------|
D|--X40------70--------24479994--4444444444444444--2222222---|
A|--X20------50--------0225777----2222222222222222--22222220--|
E|--------------------------------------------------00000000--|

E|-------------------------------------------------------------|
B|-------------------------------------------------------------|
G|-----------4444444444444444------------------2-4-4444444444--|
D|-5555555---4444444444444444--55555555--77777-2-4-4444444444--|
A|-55555550--2222222222222222--55555555--77777-0-2-2222222222--|
E|-33333330--------------------33333333--55555-----------------|

E|-------------------------------------------------------------|
B|-------------------------------------------------------------|
G|-4444----------------------4444444444444444------------------|
D|-4444--2222222---5555555---4444444444444444--55555555--77777-|
A|-2222--22222220--55555550--2222222222222222--55555555--77777-|
E|-------00000000--33333330--------------------33333333--55555-|

E|-------14-----------17b~~r----------------141210------9p8p7-|
B|-------17b~~~~~r-15--------15b~~r-12--1215-------12----------|
G|-------------------------------------------------------------|
D|-77----------------------------------------------------------|
A|-770---------------------------------------------------------|
E|-550---------------------------------------------------------|

E|-9p8p7-9p8p7-9p8p7--7p6p5-7p6p5-7p6p5-7p6p5--5b~~rp3---------|
B|----------------------------------------------------5b~~r-3p0|
G|-------------------------------------------------------------|
D|-------------------------------------------------------------|
A|-------------------------------------------------------------|
E|-------------------------------------------------------------|

E|-------------------------------------------------------------|
B|----------------------3p2p0--------------------------3-53----|
G|-4244-24242-2h4p24-24---------------------2-4244-24-4--------|
D|---------------------------3p2p0-----5p4p2-------------------|
A|--------------------------------5p4p2------------------------|
E|-------------------------------------------------------------|

E|------------{           3X             }-----------{   P.M.  |
B|{    4X    }------------3--------5-----------------{   2X   }|
G|-9--74/74--24X7999-4--5b~~r-7--7b~~~r---24X7999--4444444--|
D|-9--74/74--24X7999-40-------70----------24X7999--44444440-|
A|-7--52/52--02X5777020-------50----------02X5777--22222220-|
E|-------------------------------------------------------------|

E|   P.M.    P.M.   P.M.   P.M.   P.M.   P.M.   P.M.   P.M.    |
B|-------------------------------------------------------------|
G|-4444444444444444----------------------4444444444444444------|
D|-4444444444444444--2222222---5555555---4444444444444444--555-|
A|-2222222222222222--22222220--55555550--2222222222222222--555-|
E|-------------------00000000--33333330--------------------333-|

E| P.M.  }-----------------------------------------------------|
B|-------------------------------{            3X             }-|
G|--------------------------------44444444/77777777/99999999--|
D|-55555--7~----------------------44444444/77777777/99999999--|
A|-55555--7~----------------------22222222/55555555/77777777--|
E|-33333--5~---------------------------------------------------|

E|-----------------------------------||
B|------------------{    4X    }-----||
G|-44444444/7777777--9--74/74--9--||
D|-44444444/7777777--9--74/74--9--||
A|-22222222/5555555--7--52/52--7--||
E|-----------------------------------||


Расскажи друзьям!




Войдите, используя Ваш аккаунт:



Забыли пароль?
Зарегистрироваться

Привет, гитарист!

Пройди супер-курс по гитаре и порази всех своей игрой!

Забрать курс!
ВАМ ПОДАРКИ ОТ ПРОЕКТА
"ГИТАРНАЯ РЕВОЛЮЦИЯ"