Gitaristu.ru
Аккорды Табулатура Начинающим Мастер-класс Софт Видео Форум Блог
Новости Анонсы Гитары Гитаристы Статьи Аватарки Минусовки
Поиск





Популярные подборы




Настройка гитары






Главная > Аккорды > V > Veruca Salt

Аккорды
Veruca Salt
-
Volcano Girls bass (табулатура)



Подбор прислал: gitaristu.ru
bass tab by B33J

Veruca Salt - Volcano Girls
Album - Eight Arms to Hold You, 1997

I tabbed this listening to the song, so it won't be 100% correct, but should be close enough.
Standard tuning

INTRO
G------------------------|
D------------------------|
A------------------------|  x3
E------------------------|

CHORUS
G---------------------------|
D---------------------------|
A------5-7-7-7--------------|  x3
E5-7-7---------5-7-7--7-7---|

G----------------|
D----------------|
A------5-7-7-7---|
E5-7-7---------5-|

VERSE
| 1&2
G--------------------------------|
D--------------------------------|
A--------------------------------|
E7-7-7-7-7-7-7-7-7-7-7-7-7-7-7-7-|
| 1&2
G--------------------------------|
D--------------------------------|
A--------------------------------|
E0-0-0-0-0-0-0-0-3-3-3-3-3-3-3-3-|
| 1&2
G--------------------------------|
D--------------------------------|
A--------------------------------|
E7-7-7-7-7-7-7-7-7-7-7-7-7-7-7-7-|
| 1 (skip this on 2)            |
G--------------------------------|
D--------------------------------|
A----------------7-7-7-7-7-7-7---|   repeat
E3-3-3-3-3-3-3-3/--------------5-|
|then 2               (it sounds something like this, I can't quite make it out)
G----------------------------------|
D----------------------------------|
A----5-------5-----7---7---7---7---|
E3-3---3-3-3--/5-5---5---5---5---5-|

G-----------------------------|
D-----------------------------|
A--2/-5-5/-7-7\-2-2/-5-5/-7-7-|   I like to switch to the A string for the slides
E7----------------------------|   Hitting the E7 gives me time to switch to A2

PRE VERSE
G-------------------------|
D-------------------------|
A------5-7-7-7------------|
E5-7-7---------5-7-7--7-7-|

G----------------|
D----------------|
A------5-7-7-7---|
E5-7-7---------5-|

VERSE
| 1&2
G--------------------------------|
D--------------------------------|  repeat once
A--------------------------------|
E7-7-7-7-7-7-7-7-7-7-7-7-7-7-7-7-|
| 1&2
G--------------------------------|
D--------------------------------|
A--------------------------------|
E0-0-0-0-0-0-0-0-3-3-3-3-3-3-3-3-|
| 1&2
G--------------------------------|
D--------------------------------|
A--------------------------------|
E7-7-7-7-7-7-7-7-7-7-7-7-7-7-7-7-|
| 1 (skip this on 2)            |
G--------------------------------|
D--------------------------------|
A----------------7-7-7-7-7-7-7---|
E3-3-3-3-3-3-3-3/--------------5-|
|then 2
G----------------------------------|
D----------------------------------|
A----5-------5-----7---7---7---7---|
E3-3---3-3-3--/5-5---5---5---5---5-|

SOLO
G----------------------------------|
D----------------------------------|
A--2/-5-5/-7-7\-2-2/-5-5/-7-777777-|
E7---------------------------------|

G--------------------------------|
D--------------------------------|
A--------------------------------|
E5-7-7-7-7-7-7-7-7-7-7-7-7-7-7-7-|

G--------------------------------|
D--------------------------------|
A5-5-5-5-5-5-5-5-7-7-7-7-7-7-7-7-|
E--------------------------------|

G--------------------------------|
D--------------------------------|
A--------------------------------|
E5-7-7-7-7-7-7-7-5-5-5-5-5-5-5-5-|


G------------------------------|  This part is hard to hear too.
D------------------------------|
A7--5-7-5-7-5----7--5-7-5-7-5--|  x2
E------------------------------|


G--------------------------------|
D--------------------------------|
A--------------------------------|
E-7\ ----------------------------|

BREAKDOWN
G--------------------------------|
D--------------------------------|
A--------------------------------| x2
E--------------------------------|

G-------------------------|
D-------------------------|
A------5-7-7-7------------|
E5-7-7---------5-7-7--7-7-|

G----------------|
D----------------|
A------5-7-7-7---|
E5-7-7---------5-|

BRIDGE
G----------------------------------|
D----------------------------------|
A--------------------------9-9-9-9-|
E7-7-7-7-7-7-7-7-5-7-7-7-7---------|

VERSE II
G--------------------------------|
D--------------------------------|
A--------------------------------|
E7-7-7-7-7-7-7-7-7-7-7-7-7-7-7-7-|

G--------------------------------|
D--------------------------------|
A--------------------------------|
E0-0-0-0-0-0-0-0-3-3-3-3-3-3-3-3-|

G--------------------------------|
D--------------------------------|
A--------------------------------|
E7-7-7-7-7-7-7-7-7-7-7-7-7-7-7-7-|

G--------------------------------|
D--------------------------------|
A--------------------------------|
E3-3-3-3-3-3-3-3--5~-------------|


G---------------------------|
D---------------------------|
A--------5555555577777777---|  x2
E77777777-------------------|

G-------------------------|
D-------------------------|
A----------------77777777-|
E7777777755555555---------|

G-----------------|
D-----------------|
A--------55555555-|
E77777777---------|

G------------------------------|
D------------------------------|
A7--5-7-5-7-5----7--5-7-5-7-5--|  x2
E------------------------------|

END
G------------------------------|
D------------------------------|
A------------------------------|
E-7\ --------------------------|

| /  slide up
| \  slide down
| h  hammer-on
| p  pull-off
| ~  vibrato
| +  harmonic
| x  Mute note
==================================================================
Расскажи друзьям!




Войдите, используя Ваш аккаунт:



Забыли пароль?
Зарегистрироваться

Привет, гитарист!

Пройди супер-курс по гитаре и порази всех своей игрой!

Забрать курс!
ВАМ ПОДАРКИ ОТ ПРОЕКТА
"ГИТАРНАЯ РЕВОЛЮЦИЯ"