Gitaristu.ru
Аккорды Табулатура Начинающим Мастер-класс Софт Видео Форум Блог
Новости Анонсы Гитары Гитаристы Статьи Аватарки Минусовки
Поиск





Популярные подборы




Настройка гитары






Главная > Аккорды > Y > Yann Tiersen

Аккорды
Yann Tiersen
-
Comptine Dun Autre Ete Lapres Midi (табулатура)



Подбор прислал: gitaristu.ru
Rythm guitar: 

E||-0----0----0----0---|--------------------|
H||---0----0----0----0-|-3----3----3----3---|
G||------0---------0---|---4----4----4----4-|
D||-2---------2--------|-0----5----0----5---|
A||--------------------|--------------------|
E||--------------------|--------------------|

E||--------------------|--------------------|
H||-3----3----3----3---|-3----3----3----3---|
G||---4----4----4----4-|---2----2----2----2-|
D||-0----4----0----4---|-0----4----0----4---|
A||--------------------|--------------------|
E||--------------------|--------------------|

Solo guitar:

E||------------|------------|------------|------
H||------0/1/0-|------------|------0/1/0-|------
G||------------|------0h2-0-|------------|------
D||-5/4/5------|-4/5/4------|-4/2/4------|-4/2/4
A||------------|------------|------------|------
H||------------|------------|------------|------

E||-0--|-----2---|-2---|-3-0-|-3---|-2---|-2---|
H||--0-|-3-0
Расскажи друзьям!




Войдите, используя Ваш аккаунт:



Забыли пароль?
Зарегистрироваться

Привет, гитарист!

Пройди супер-курс по гитаре и порази всех своей игрой!

Забрать курс!
ВАМ ПОДАРКИ ОТ ПРОЕКТА
"ГИТАРНАЯ РЕВОЛЮЦИЯ"